ConnexionConnexionInscription
E A D G B E
167 connectés Aller à Slappyto Basse

Accords Hocus pocus

#1
11/06/2008 20:11:45

Coucou les amis

J'adore ce groupe (Hocus Pocus) , et on trouve pas de tab sur ce groupe (oui je suis un feinéant), alors j'ai décidé de trouver a l'oreille les accords de la chanson "Normal" . Ce sont quelques accords qui tournent en boucle, mais j'ai beaucoup de mal a les trouver a l'oreille, sa sonne très bluesy .

Je compte sur vous mes amis (ci joint un lien de la musique !)

Sa fait un peu dora l'exploratrice

http://www.deezer.com/track/193081

0
0
#2
04/08/2008 20:15:06
UP !! ca m'interesse aussi !!  
0
0
#3
06/08/2008 02:16:32
  Je les ai vus au montreux jazz festival, ils sont énormes sur scène

pis le gratteux à une putain de Strat'

Sinon, je ne peut t'aider, désolé :s
0
0
#4
06/08/2008 03:11:27
 C'est facile, en fait hocus pocus y tournent souvent sur les mêmes accords, genre "Smile" et "Normal" c un peu la même grille d'accord et même de patern...

Le premier accord c'est sur que c'est ça, pour le dernier j'ai un léger doute

E|----7------------|-----------------|-----------------|------0-----------|
B|----10-----------|-------5---------|-----8-----------|------0----------|
G|----7------------|-------4---------|-----7-----------|------4----------|
D|----7------------|-------5---------|-----9-----------|------5----------|
A|----9------------|-------3---------|--7--7-----------|--3---3-----------|
E|----7------------|-----------------|-----------------|-----------------|


Voila je  pense que c'est bon. POur improviser cette Liste d'accord est simpa (en mi )
0
0
#5
08/08/2008 22:36:09
 Bonne idée ce post, hocus pocus est vraiment un groupe génial !


0
0
#6
08/08/2008 23:12:31
 Up !! J'ai "Smile" leur tube du moment aussi Si vous voulez !! Trouvé d'oreille d'aprés leur préestations au Nice jazz Festival, Et au victoires de la musique !

Si vous la voulez, faites signe!
 
0
0
#7
09/08/2008 00:10:47
 Ça m'interesse ! merci d'avance :)
0
0
#8
09/08/2008 01:19:53
 Bon ok, EN fait c'est vraiment pas dur ... suffi d'avoir une oreille fine et connaitre 2-3 accords Jazz

Pour Smile Voici la tablature by MOI

E|------------------|-----------------|--------------------|----------------|
B|----------5----x--|--------6--------|--------------------|----------------|
G|----------5----x--|--------5--------|--------------------|----------------|
D|----------5----x--|--------7--------|--------------------|----------------|
A|----------7-------|----5------------|-------------5------|----------------|
E|---5--5-----------|-----------------|----x--5-7-8--------|----------------|
E|------------------------|----------------|----------------|----------------|
B|------------------------|----A repeter 1x---|----------------|----------------|
G|------------------------|---puis enchainer-|----------------|----------------|
D|--5-------------5-------|-----la -----------|----------------|----------------|
A|--5h7h5-----5h7---------|----dessu--------|----------------|----------------|
E|--------7---------------|----------------|----------------|----------------|

=>

E|-----------------|-----------------|-----------------|----------------|
B|-----5-----------|----6------------|-----5-----------|-----8-----------|
G|-----5-----------|----5------------|-----4-----------|-----7-----------|
D|-----5-----------|----7------------|-----5-----------|-----9-----------|
A|-----7-----------|----5------------|-----3-----------|-----7-----------|
E|-----5-----------|-----------------|-----------------|----------------|

Tenez a bien respecter le rythme groovy mis en place Par David le Deunff...
Pour ceci voici la video ICI

A oui j'alllais oublier !! A la fin du premier Riff, enfn quand y repette le riff de base une fois, il le recomence et au lieu de faire les hammer et tout le bordel de la fin y fait une harmonique de la 5 frette... Et apré y recomence le riff avec le hammer et tout le bordel, et enfin y commence a chanter ...

Voila j'espère qu c'est clair si non ben désoler Mec ... mais tu comprendra avec la video a l'appui et ton oreille

0
0
#9
09/08/2008 01:22:03
 merde sa a merder !!!

 Ben je refais la tabs ...
E|------------------|-----------------|--------------------|----------------|
B|----------5----x--|--------6--------|--------------------|----------------|
G|----------5----x--|--------5--------|--------------------|----------------|
D|----------5----x--|--------7--------|--------------------|----------------|
A|----------7-------|----5------------|-------------5------|----------------|
E|---5--5-----------|-----------------|----x--5-7-8--------|----------------|

E|------------------------|
B|------------------------|
G|------------------------|
D|--5-------------5-------|
A|--5h7h5-----5h7---------|
E|--------7---------------|


C'est plus simple avec guitar pro mdr


0
0
#10
09/08/2008 01:24:25
 Et en fait l'harmonique est a la 7eme frette désolé j'ai pa de guitare sous la main, j'ai tout fait de mémoire lol
 
0
0
#11
09/08/2008 01:32:10
 Merci pour ton taff, c'est très sympa :) Je m'y mets dès demain.

Bien vu le coup de l'harmonique :D
0
0
#12
09/08/2008 01:38:57
Pas d'probleme mec

A oui !! et puis aussi le mieu c'est une strat (comme tu peu le voir) et si t'en a une (ou tout comme ^^) il faut absolument te positioner en micro Manche ... Et tu met ton tone du haut a 7 ou 8
je sais qu'avec ma strat et mon ampli marshall 30 DFX sa sonne vraiment comme le mec
Bonne gratte et surtout bonne nuit moi je vais me pioter tiens ...
0
0
#13
09/08/2008 01:41:46
Si tu as besoins d'autres même pas de hocus pocus, fait signe, c'hui très branché ce style de musique et tout ce qui groove en général
0
0
#14
09/08/2008 01:56:54
 Pour la gratte, j'ai une Squier stratocaster, donc ouai ça ira :))

Merci pour ton taff et ta serviabilité dude, c'est vraiment cool de ta part
0
0
#15
09/08/2008 02:06:27
 Ptite question, y'a besoin d'un effet? ou un son clair suffit ? j'ai rien d'autre que l'overdrive de mon ampli :s
0
0
#16
09/08/2008 12:06:40
 Etant donné qu'il joue sur ampli a lampe méga puissant (et ouais, victoires de la musique oblige...) Il est en son clair, mais a un ptit son crade sur la fin es notes ...
Ta juste a foutre ton ampli au max en gros

Nan serieusement, SOn clair c'est tout !
0
0
#17
09/08/2008 12:42:16
 Mais non suis-je con , Il utilise un compresseur ... Moi perso sur ma Pédale de compression  Marshall, je met les réglages suivants:
 Emphasis => Low
Volume: A max
Attack: 5
Compression: 8


0
0
#18
09/08/2008 21:35:57
 Si ta proposition tiens toujours, j'aimerai bien avoir la tab de ceci stp : http://www.deezer.com/track/576873

Ca sonne pas mal je trouve !

Merci :)
0
0
#19
09/08/2008 23:41:13
 J'adore le vent que se prend le mec xD "bon on va rigoler ensemble en pensant a la politique du gouvernement ..." GROS BLANC .... BOn jveu vous entendre tous rire !! .... gros blanc
XD

Ben pour les accords, c'est telement facile que je te laisse les trouver ...
Ou si nn tu peu essayer de chercher sur google en tappant "Nougaro  tabs"
Ou "let my people go + Chords"

VOILA !!!! si tu trouve pas (car je sais que tu n'a pas cherché ) Là je t'aiderais ;)
0
0
#20
10/08/2008 01:27:53
 J'ai pas cherché parce que je pensais pas que c'était les mêmes accords que ceux de Armstrong/let my people go ^^ Je vais voir ça merci :)
0
0
#21
10/08/2008 01:35:45
 Ben y font ni plus ni moins une reprise du thème avec les paroles de claude nougaro ... Paix a ce monstre du jazz francais...
0
0
#22
17/09/2008 22:13:53
 Bonjour à toi Jimol,
est-ce que t'aurais la possibilité de mettre la tab de Vocab! de Hocus Pocus.
Ce serait très sympa de ta part. Merci d'avance
0
0

En Live

Manmane a commenté le wall de Ludo86 il y a 15 minutes