ConnexionConnexionInscription
E A D G B E
103 connectés Aller à Slappyto Basse

Michael Jackson - Liberian Girl [ Artiste ]

Publié par le
06/01/2012
3804 vues
Moyen 2
http://www.youtube.com/watch?v=f3V-7DEAgdc
    
        

Titre culte du grand roi de la Pop, la grille d'accord de ce morceau est très sympa et pas trop
compliquée à jouer. Il n'y a pratiquement que des accords barrés ou alors placez un capodastre
en case 4. Attention à l'accord jazzy de Bm7b5 qui est un classique du jazz mais qu'on voit
quand même moins dans la pop. Pour la rythmique faites comme vous le sentez :).


COUPLETS 


   Abm        Abm         Dbm         Ebm

||--4----------4-----------4-----------6----||
||--4----------4-----------5-----------7----||
||°-4----------4-----------6-----------8---°||
||--6----------6-----------6-----------8----||
||°-6----------6-----------4-----------6---°||
||--4----------4----------------------------||

REFRAINS 

   E7M     E7M       Abm      Abm          Bbm7b5   Bbm7b5   Eb7 

|--7--------7--------4---------4--------|----------------------------------------|
|--9--------9--------4---------4--------|--5--------5--------4----4-5-4----------|
|--8--------8--------4---------4--------|--6--------6--------6----------4-3------|
|--9--------9--------6---------6--------|--6--------6--------5--------------6----|
|--7--------7--------6---------6--------|--------------------6----------------7--|
|--------------------4---------4--------|--6--------6----------------------------|

    
    

1 Commentaire

1 2 3 4 5
2 notes
Notes pour Liberian Girl Guitare Tab - (Michael Jackson) | Sweepyto : 5/5 sur 2 notes
#1
07/01/2012 01:40:17

Top la tab   !

0
+1

En Live

Vrock81 et pascal'son ont commenté le topic [Le bar est ouvert] de Poppy il y a 35 minutes
Vrock81 a voté pour le message de franckydookie il y a 1 heure
Vrock81, analogeek et alx ont voté pour le message de pacoanto1 il y a 2 heures
Poppy a voté pour le message de juju83 il y a 2 heures
Vrock81 a voté pour le message de analogeek il y a 2 heures