ConnexionConnexionInscription
E A D G B E
208 connectés Aller à Slappyto Basse

Traditionnel - Joyeux anniversaire (Happy Birthday) [ Artiste ]

Publié par le
06/01/2012
64304 vues
Débutant 1
http://www.youtube.com/watch?v=GXMLyRyvixQ
    
        

3 VERSIONS TOUS NIVEAUX

Je ne sais pas vous mais moi on m'a toujours demandé de jouer joyeux anniversaire à la guitare
dès qu'un anniversaire se présentait. Alors un jour j'ai décidé de l'apprendre ce qui fait
clairement plaisir à mes amis. De plus en concert bon enfant si vous jouez ce morceau,
il y a de fortes chances (99 sur 100) que ce soit l'anniversaire de quelqu'un et donc
il sera ravit et le criera à tout ces amis que c'est aujourd'hui ou hier ou demain.
Voici donc un indispensable en 3 versions pour tous niveaux. 


Version DEBUTANT mélodie facile :

|-----|-----------------------------------------------3--0------------1-1--0--------------|
|-----|-------1---0---------------------3--1---------------1--0---------------1--3--1-----|
|-0-0-|2---0-------------0--0--2----0-----------0--0------------2-2-----------------------|
|-----|-----------------------------------------------------------------------------------|
|-----|-----------------------------------------------------------------------------------|
|-----|-----------------------------------------------------------------------------------|

Version accords pour accompagner

Mesure à 3 temps !

|-0--0--0-|-3--3--3-|-3--3--3-|---------|---------|-1--1--1-|-0--1--3--|-0-----|
|-1--1--1-|-3--3--3-|-3--3--3-|-1--1--1-|-1--1--1-|-1--1--1-|-1--1--3--|-1-----|
|-0--0--0-|-0--0--0-|-0--0--0-|-0--0--0-|-0--0--0-|-2--2--2-|-0--2--0--|-0-----|
|-2--2--2-|-0--0--0-|-0--0--0-|-2--2--2-|-2--2--2-|-3--3--3-|-2--3--0--|-2-----|
|-3--3--3-|-2--2--2-|-2--2--2-|-3--3--3-|-3--3--3-|-3--3--3-|-3--3--2--|-3-----|
|---------|-3--3--3-|-3--3--3-|---------|---------|-1--1--1-|----1--3--|-------|


Et enfin une VERSION POUR LES TUEURS qui mélange la mélodie et les accords un brin jazzy :

|------|---------|----------|---------|----------|-3--0----|----------1-1|-0--------|-0-----|
|------|-------1-|-0--0-----|-------3-|-1--------|-1--1--1-|-0--------1--|-1--1--3--|-1-----|
|--0-0-|-2--0--0-|-0--0--0-0|-2--0--0-|-0--0--0-0|-0--0--0-|-2-2-2----1--|-0--2--0--|-0-----|
|------|-2--2--2-|-0--0--0--|-0--0----|----2--2--|---------|-3--------0--|----3--0--|-2-----|
|------|-3--3----|----------|---------|-3-----3--|-3--3--3-|-------------|-3--------|-3-----|
|------|---------|-3-----3--|-3--3--3-|----------|---------|-1---1-------|----1--3--|-------|

    
    

1 Commentaire

1 2 3 4 5
4 notes
Notes pour Joyeux Anniversaire (Happy Birthday) Guitare Tab - (Traditionnel) | Sweepyto : 4/5 sur 4 notes
#1
04/08/2012 15:26:24

merci

 

0
+1

En Live

Zoerm a commenté le topic [Covers guitare] de raphu0403 il y a 20 minutes
TheGlaN a voté pour le message de mikaka il y a 48 minutes
TheGlaN a voté pour le message de Zoerm il y a 50 minutes
TheGlaN a voté pour le message de Fabien_GUERIN il y a 51 minutes
TheGlaN a voté pour le message de mikaka il y a 54 minutes