ConnexionConnexionInscription
E A D G B E
207 connectés Aller à Slappyto Basse

Police - Message in a bottle [ Artiste ]

Publié par le
22/12/2010
7840 vues
Moyen 3
http://www.deezer.com/listen-2462148
    
        

COUPLET

Guitare 1

     C#sus2       Asus2       Bsus2              F#sus2            

E||---------------------------------|---------------------------||
B||---------------------------------|---------------------------||
G||°-----------8--------------------|--------------------------°||
D||---------6--------------9--------|--------11------------6/7--||
A||°-4------------------7-----------|-----9-------------4------°||
E||---------------5-----------7-----|------------2--------------||

 
Guitare 2 qui harmonise le thème

    Esus2        C#sus2       A/D#             C#sus2             
  
E||---------------------------------|----------------------------||
B||---------------------------------|----------------------------||
G||°----------11------------8-------|--------9------------8s--9-°||
D||--------9-------------6----------|-----7------------6---------||
A||°-7------------4------------6----|--L--------4---------------°||
E||---------------------------------|----------------------------||



                                                                     PRE REFRAIN

    C#sus2       Asus2       Bsus2             F#sus2                 A5                       
 
||----------------------------------|-----------------------------||---------------------------|
||----------------------------------|-----------------------------||---------------------------|
||°------------8-----------4--------|--------4-------------------°||°--------------------------|
||----------6-----------2-----------|-----4---------------6S--7---||---7--7--7--7--7--7--7--7--|
||°--4------------0-----------2-----|--L---------------4---------°||°--7--7--7--7--7--7--7--7--|
||----------------------------------|-----------2-----------------||---5--5--5--5--5--5--5--5--|


   D5          E5                F#5                         D5                         
                                                                                     3x
|---------------------------||----------------------------|---------------------------||
|---------------------------||----------------------------|--3--3--3--3--3--3--3--3---||
|--7--7--7--7--9--9--9--9--°||°---------------------------|--2--2--2--2--2--2--2--2--°||
|--7--7--7--7--9--9--9--9---||---4---4--4--4--4--4--4--4--|--0--0--0--0--0--0--0--0---||
|--5--5--5--5--7--7--7--7--°||°--4---4--4--4--4--4--4--4--|--------------------------°||
|---------------------------||---2---2--2--2--2--2--2--2--|---------------------------||


REFRAIN
 
     C#m7                A                     F#m                 F#m9               
                     
                                         4x                  
||---4----------------|--5-----------------||--2----------------|--4----------------||
||---5----------------|--5-----------------||--2----------------|--2----------------||
||°--4----------------|--6----------------°||--2----------------|--2----------------||
||---6----------------|--7-----------------||--4----------------|--2----------------||
||°--4----------------|--7----------------°||--4----------------|--4----------------||
||--------------------|--5-----------------||--2----------------|--2----------------||

    
    

0 Commentaires : réagissez !

1 2 3 4 5
2 notes
Notes pour Message In A Bottle Guitare Tab - (Police) | Sweepyto : 5/5 sur 2 notes
Aucun commentaire !

En Live

36seb a voté pour le message de pacoanto1 il y a 7 minutes
36seb a commenté le topic [Le coin des Bluesmen ] de arthrose il y a 20 minutes
Zoerm a voté pour le message de 36seb il y a 36 minutes
Zoerm a voté pour le message de 36seb il y a 36 minutes
Pacoanto1 a commenté le topic [Original song (composition)] de UcCaBaRuCcA il y a 41 minutes
36seb a voté pour le message de pacoanto1 il y a 42 minutes
Pacoanto1 a voté pour le message de valinski il y a 45 minutes
36seb a commenté le topic [Les Nostalgeek] de Marvelous il y a 1 heure