ConnexionConnexionInscription
E A D G B E
112 connectés Aller à Slappyto Basse

Deep purple - Smoke on the water

Publié par le
25/07/2006
133871 vues
Débutant 1
Vitesse NormaleNormal speed Vitesse RalentieSlow down speed

Voici un des premiers riffs que l'on apprend en guitare car il est relativement simple et mondialement connu. Utilisez votre médiator pour jouer ce riff et attention à ne pas jouer les autres cordes. Le médiator ne sera joué qu'en aller dans cet exemple (coup de médiator vers le bas) Attention à la mise en place rythmique. Pour trouver un appui avec la main droite afin d'obtenir de la précision, placez le flanc de votre paume de main droite sur le vibrato ou votre corde de mi grave. Pour étouffer les cordes, posez le flanc de votre paume main droite sur toutes les cordes. Vous pouvez quand c'est possible arrêter la vibration des cordes en posant votre main gauche à plat sur les cordes sans appuyer avec une forte pression.

19 Commentaires

1 2 3 4 5
6 notes
Notes pour Smoke on the water - Deep purple - Cours de guitare vidéo | Sweepyto : 4/5 sur 6 notes
#19
02/01/2013 16:06:32
nan c'est bon juste un problème de réglage je te remercie pour le cour 
0
+1
#18
02/01/2013 15:31:20

C'est quoi comme ampli ?

0
0
#17
01/01/2013 17:42:02

ou il faut que je regle mon empli mais jy arrive pa

 

0
0
#16
01/01/2013 17:39:50

Oulah c'est bizarre ce que tu dis. Un son saturé s'applique à toutes les cordes normalement.

0
0
#15
01/01/2013 17:33:02
je sait mai sur ma guitare ce son les seul cordes qui font un bruit saturé
0
0
#14
01/01/2013 17:19:40

Ca marche Rick on reconnaît le morceau mais c'est trop aigu par rapport à l'original  .

0
0
#13
01/01/2013 17:09:18

 

moi on m'a appris comme sa :

 

E|--0--3--5--0-|-3--6--0--3-|--5--3--0-------|

B|--0--3--5--0-|-3--6--0--3-|--5--3--0-------|
G|----------------|----------------|----------------|
D|----------------|----------------|----------------|
A|----------------|----------------|----------------|

E|----------------|----------------|----------------|

0
+1
#12
22/01/2012 21:55:54
alors personnellement je l'ai toujours appris en remplacent le premier accord (0 sur D et G) par 5 sur A et D ce qui permet de plus facilement étouffer les autres cordes à mon gouts mais c'est exactement pareil niveau sonorité...
0
0
#11
04/08/2011 11:35:17
Beaucoup plus simple qu'elle n'y parait ça donne une sacrée allure de savoir ce morceau! Merci!!
0
+1
#10
17/05/2011 22:37:11
J'ai enfin trouvé merci :-)
0
+1
#9
17/05/2011 22:00:09

Il y a surement un "bouton" pour passer sur le canal Gain. Appuie de partout.

0
0
#8
17/05/2011 21:38:46
Oui j'ai un bouton gain mais je le tourne et le retourne mais sa ne fait pas le son saturé.
0
0
#7
17/05/2011 21:06:57

 

Retirer
Phenix1304
Bonjour, j'ai une squier strat, et j'arrive pas à faire le son électrique. Je sais pas si c'est sur les boutons "tone" (1 à 10) que sa ce règle. Aidez moi svp. 

 Il faut régler l'ampli. Sur la guitare met tous les boutons à 10. Sur ton ampli tu dois avoir un bouton Drive ou Gain qui te permettra de faire le son saturé.

 

0
0
#6
17/05/2011 20:29:54
Bonjour, j'ai une squier strat, et j'arrive pas à faire le son électrique. Je sais pas si c'est sur les boutons "tone" (1 à 10) que sa ce règle. Aidez moi svp. 
0
+1
#5
28/12/2010 00:04:07
Moi je trouvais pas plus simple que ta partition  mais j'ai fais avec .Il y a encore quelque bruit bizarre mais sinon j'y arrives  
0
0
#4
28/12/2010 00:01:24

Quand j'étais débutant je la jouais comme ca :

 

E|----------------|----------------|----------------|----------------|
B|----------------|----------------|----------------|----------------|
G|----------------|----------------|----------------|----------------|
D|----------------|----------------|----------------|----------------|
A|----------------|----------------|----------------|----------------|
E|--0-3-5--0-3-6-5--0-3-5---3-0---------------------|----------------|
 

0
0
#3
27/12/2010 23:59:54
je suis entierement d'accord avec toi mais je suis un débutant  
0
0
#2
27/12/2010 23:57:51

Ce que tu proposes est une version pour débutant. Le vrai morceau se joue comme je l'ai écrit  . Mais ta version est sympa pour débutant !

0
0
#1
27/12/2010 23:55:38

sinon il y a :

 

E|----------------|----------------|----------------|
B|----------------|----------------|----------------|
G|----------------|----------------|----------------|
D|----------------|----------------|----------------|
A|---------0------|-----1---0------|-----0----------|
E|-0---3-------0--|-3-----------0--|-3-------3---0--|

0
0

En Live

JHBFAYE vient tout juste de rejoindre la communauté Sweepyto. Bienvenue ! il y a 4 jours
DavidV85 vient tout juste de rejoindre la communauté Sweepyto. Bienvenue ! il y a 1 semaine
36seb a commenté le topic [Issoudun 2019] de 36seb il y a 1 semaine
Djidji vient tout juste de rejoindre la communauté Sweepyto. Bienvenue ! il y a 2 semaines
Analogeek a voté pour le message de patcast il y a 2 semaines
5emeavenue a commenté le wall de gege21 il y a 2 semaines
Patcast et analogeek ont commenté le topic [Covers guitare] de raphu0403 il y a 2 semaines
Analogeek a voté pour le message de patcast il y a 2 semaines