ConnexionConnexionInscription
E A D G B E
74 connectés Aller à Slappyto Basse

Espion - Recherchez les messages des membres

56 messages
Topic : kirk hammett ( Metallica )
#0
20/07/2007 02:09:37
metallicadu62
vous savez ou on peut trouver une pedale d'expression SVP
et surtout combien ca coute
 J'utilise une pedale d'expression + multi-effets Digitech model RP80, prix : 120$ Canadien (je sais pas trop combien ça fait en euros... désolé). J'ai presque tout avec cela, reverb, delay, amp model, equalizer, chorus, flange, fuzz, et bien sur, la pédale d'expression pouvant être règlée pour contrôler le volume, le delay, le reverb, bref, presque tous les effets, dont le Wah.
0
0
Topic : Metallica Welcome Home Sanitarium
#1
20/07/2007 02:01:59
La différence est difficile à entendre ( pour quelqu'un qui ne fait que commencer, ou qui n'a pas une très bonne oreille ), mais cela permet entre autre de faire tenir la note même après avoir enlever ton doigt de la corde.

Pour ce qui est de la différence du son, l'harmonique est plus pur, la courbe du son est plus régulière.
0
0
Topic : suis bloqué
#2
07/01/2007 02:10:35
tu dit que tu fais les 2 solos thoun à cité, alors il est où le probleme ? tu veux composer, tu ne joue pas assez vite, tu déraille dans le tempo...
0
0
Topic : Composer Riff Métal:
#3
07/01/2007 02:08:07
pour composer, tu prend une gamme, tu l'apprend, la maitrise, et tu joue nimporte quoi avec jusqua ce que tu aie quelque chose qui te plait. tu peut jouer des notes qui ne sont pas dans la gamme que tu va choisir, mais essaye de te limiter un peu, sinon tu ne suis carrément plus la gamme...

pour savoir plus exactement quoi jouer, interprete tes émotions, tes pensée en notes, et essaye de faire quelque chose dassez harmonieux.
0
0
Topic : Bonne Année a Tous!
#4
01/01/2007 20:44:26
JOYEUX NOËL !!! ... un peu en retard...

et

BONNE ANNÉE !!! ... un peu moins en retard...
0
0
Topic : Wish You Were Here
#5
30/12/2006 06:37:03
Si tu cherche un groupe avec des chansons que les paroles n'ont pas plus de sens que ceux de Pink Floyd, je sais pas quoi te conseiller...

pour les chansons de 10 minutes et plus, Dream Theater, avec entre autre "A Change Of Season", 23 minutes que de pur plaisir  ou "Six Degrees Of Inner Turbulence" 42 minutes, séparé en 8 pistes, mais ça reste quand même une seule oeuvre (très difficile à trouver en un seul morceau)
0
0
Topic : Questions multiples
#6
25/12/2006 04:04:26
ma guitare m'a couté environ 300 euros, et je jou avec un ampli 10 watts... et ce qui fait que mon son est "mauvais", c'est la guitare  Je ne pense pas que ton ampli va limité les possibilité de ton son (tout dépend si tu joue en groupe, seul, dans des bars etc...)
0
0
Topic : Vos solos preferé!!!!!!
#7
16/12/2006 02:50:54
Alex156

Et outre tender surrender (déjà cité ) , In the name of god de Vai. Pour le fun, le clip avec les costumes trop class:
 heum... In The Name Of God, c'est de Dream Theater... peut-être plus For The Love Of God
0
0
Topic : Accord barré avec l'index
#8
09/12/2006 01:59:44
le problème c'est pas ton pouce, c'est ton idex
et la première mesure, c'est des accords cinquième, et non des accords barrés
0
0
Topic : modif guitare trois manches
#9
07/12/2006 03:44:35
je sais pas. mais j'ai déja brancher ma gratte (ma premiere, pas ma bc rich) sur un ampli de bass... sa sonnait vraiment fond de ca-canne
0
0
Topic : modif guitare trois manches
#10
06/12/2006 22:57:56
tu compte vraiment utiliser le manche de basse et de guitare dans le même morceau ????

si oui, je te conseille de te trouver un bassiste  ou une pédale que tu pourrais éditer 2 "setting" un pour la guitare (le son plus fort) et un pour la basse (le son moins fort) et en jouant aussi avec l'équalizer (bass, middle, treble) tu devrais arriver a un résultat pas trop mal.

sinon, j'ai aucune idée le prix que ça te couterait pour défoncer, arranger et réparer... mais sûrement très cher.
0
0
Topic : C'est quoi ça ? => Shadow SH1000 Finger Trainer
#11
06/12/2006 22:52:54

Il y a au moins une chose qui est sûr, l'inventeur de cet objet avais beaucoup de temps a perdre.

0
0
Topic : Une gratte pour noel .... Oui mais laquelle
#12
04/12/2006 03:59:01

Moi je te conseille de te ramasser un plus gros budget

mais vu que tu veut vraiment une guitare de merde pas trop bonne... je te conseille la yamaha, mais le truc, et comme toujours (et on dirait bien que personne le sais, sa doit faire au moins 15 fois que je le dit sur ce site) va au magasin, et essaye toutes celles qui sont dans ton budget, il se peut très bien que tu en préfère une autre qui ne soit pas dans ton premier choix

0
0
Topic : Corde jazz
#13
30/11/2006 23:56:41
le diamètre des cordes ne change pas le son... c'est le matériel utiliser (acier, nickel, nilon, etc...)
0
0
Topic : Accords
#14
30/11/2006 23:55:23
apprend les accords... Dadd2 c'est un accord de Ré et le add 2 signifie de ajouter la seconde au lieu de la tierce je crois ( je ne sais pas trop, je n'ai pas encore appris les accordss, mais je compte le faire très bientôt )

cherche sur internet (google est ton ami) tu trouveras une manière d'apprendre tous les accords facilement, mais il faut que tu connaisse les intervalles, les degrées (pas sûr...) pour savoir que s'il te faut mettre la tierce mineure au lieu de la tierce majeure, il faut tu sache c'est quoi une tierce
0
0
Topic : comment améliorer ses impros ?
#15
30/11/2006 03:13:41
Poppy
E mineur relative G majeur et non G#

:O)
 désolé, j'admet mon erreur, prochaine fois je vais me forcé
0
0
Topic : comment améliorer ses impros ?
#16
28/11/2006 02:14:11
pour les cours, tu devrais, ça va vraiment t'aider (en tout cas, moi ça ma aidé)

pour les relatives mineure et majeure, je crois que c'est un peu la base d'une composition bien faite. et c'est pour ça que je cherche le plus d'info sur ceci (particulièrement quels accords "vont bien" avec quelles gammes)

PS: j'ai cherché sur wikipédia (j'ai du lire au moins le 3/4 du portail de la musique sans trouver des infos intéressantes)...
0
0
Topic : comment améliorer ses impros ?
#17
27/11/2006 23:14:14
Night

Bien sur que non tu peux les utiliser dans tous les styles !La penta n'est que la gamme majeure a laquelle on a enlevé 2 notes, ni plus ni moins...
pas exactement, la gamme majeure, c'est la gamme pentatonique avec 2 notes de plus. c'est pareil pour la gammes de blues, on a ajouté 2 notes à la pentatonique.
touloudou
ok, merci bien, mais par contre, un morceau ou on improvise normalement en penta de Mi mineur, par exemple, on doit jouer sur une gamme majeure de Mi aussi ?
 si je ne me trompe pas, non. il faut que tu joue sur les gammes des relatives mineures ou majeures (1 ton et demi plus haut pour la relative majeure, 1 ton et demi pour la relative mineure )

donc, si tu joue sur la gamme de Mi (E) mineure, tu pourras jouer aussi sur la gamme de G# majeure.

Je suis pas totalement sur de se que j'ai dit, mais je le crois bien. Si quelqu'un pourrait approuver ce que j'ai écrit, ça serait bien, je ne veut pas vous mettre dans le tort
0
0
Topic : comment améliorer ses impros ?
#18
26/11/2006 15:38:53
touloudou
j'ai mémorisé quelques gammes déja, mais j'ai un petit problème...je vois pas comment les utiliser...

Il y a une différence entre connaitre une gamme et la maitriser. Si tu la connais, il ne te reste plus qu'à jouer n'importe quoi sur cette gamme. Ne pense pas avant de jouer une note, il faut que ça vienne tout seul. En faissant ça, tu vas finir par débloquer et faire de vrais impros qui sonne bien, et qui ne sont pas ce qu'un autre guitariste à fait.

C'est normal qu'au début tu ai de la misère, que ton jeu ne sois pas fluide ou bien que tu te trompe de note sur ta gamme, c'est en forgeant qu'on devient forgeron. À force de la jouer, et de tout le temps faire quelque chose de différent, tu avoir plus de facilité. Moi je débloque peu à peu depuis 2-3 semaines. Mes impros sont toujours meilleures, et ça commence à prendre vraiment des sons qui sont de moi, et non une transposition d'un morceau.

0
0
Topic : pour une 2eme guitare..
#19
26/11/2006 15:33:14

essaye en plusieurs, moi, personnelement, je hai les télécaster, et pourtant, a ce que je vois, il y a beaucoup de personne qui l'aime.

ne te fie pas sur l'avis des autres, on va tous dire quelque chose de différent, si tu les essaye, tu trouveras celle que tu aime le plus. aussi, ne fais pas qu'écouter le son, assure toi que ty est à l'aise avec la forme, le poids, la largeur du manche, la distance entre le manche et les cordes etc...

personnellement, je te conseille d'en acheter une neuve, c'est toujours mieux.

pour ce qui est de moi, j'ai une Bc Rich Beast ( sur ma belle photo de mon avatar  ) et j'économise pour une guitare 7 cordes (entre 1350 et 1700 euros (2000 à 2500 $ canadien) )

bonne chance pour trouver la guitare qui te va le mieux

0
0
Topic : comment améliorer ses impros ?
#20
26/11/2006 00:07:46

s'il commence à improviser c'est qu'il est forcément capable de rester rythmé, de pas allez trop vite dans le tempo... sinon, c'est un peu normal que ses impros soit "plates"

0
0
Topic : comment améliorer ses impros ?
#21
25/11/2006 22:21:40
premièrement, est ce que tu joue sur une gamme ( exemple : G blues majeure ) ou tu joue n'importe quoi ?

deuxièmement, y'a pas de secrets, il faut pratiquer, pratiquer, pratiquer...

troisièment, il faut jouer plus que seulement des notes "normales", fais des bends, des hammer-on, pull-off, etc... ça va donner un certain "feeling" à tes impros.

et enfin, ne pas seulement "monter et descendre" tes gammes, saute des notes, va plus vite, plus lent, et n'essaie pas de jouer trop vite tout le temps, car souvent (souvent, mais pas toujours) les solos les plus rapides ont moins de "feeling"...

aussi, ne copie pas trop ce que font les autres, développe toi ton style, comme ça c'est toujours mieux.
0
0
Topic : debutant et GP
#22
23/11/2006 05:10:13
J'ai pas compris ton mode raclure off... c'est peut-être parce que je suis Québécois et qu'on a pas les mêmes expressions, ou bien je suis stupide malgré mon QI de 121...
0
0
Topic : debutant et GP
#23
23/11/2006 01:11:01
Ce sont les premiers exercices que mon premier prof m'a fait faire. Ça m'a vraiment aider à avancer plus vite et à mieux jouer. Maintenant je fais plus des exercices pour le temps, le rythme (en triolets, double croche...), l'endurance des doigts et d'autres petites choses du genre.

Mais y'a une chose qui est sur, les exercices, ça aide énormément à s'améliorer. Si je n'en aurait pas fait, je ne serait même pas encore capable de jouer le premier solo de Welcome Home Sanitarium (alors que j'ai le niveau pour faire le dernier solo de Fade To Black...)
0
0
Topic : [Exercices + morceaux (fun) pour debutant niveau 1 de chez 1 lol ]
#24
22/11/2006 01:48:23
clemboule
pour l'écartement des doigts je te conseille "sweet dream" version manson
 Moi je conseille plus "stream of consciousnees" de Dream Theater pour l'écartement des doigts, c'est un vrai travaille de contortionniste (en 5/4, et non 4/4) (déconseillé pour un débutant trop "débutant", mais tu peut toujours essayer) (accordage 1/2 ton plus grave que l'accordage standard) :
D#|--------------------|--------------------|--------------------|
A#|--------------------|--------------------|--------------------|
F#|--------------------|--------------------|--------------------|
C#|--7---8-----7---8---|--8---7-----8---7---|--7---8-----7---8---|
G#|5-5-5-5-5-5-5-5-5-5-|3-3-3-3-3-3-3-3-3-3-|5-5-5-5-5-5-5-5-5-5-|
D#|--------------------|--------------------|--------------------|

(ici, c'est "12" et "10", pas "1" "2" et "1" "0")
D#|--------------------|--------------------|--------------------|
A#|--------------------|--------------------|--------------------|
F#|--------------------|--------------------|--------------------|
C#|--8---7-----8---7---|--------------------|--------------------|
G#|3-3-3-3-3-3-3-3-3-3-|--12--10----12--10--|--10--8-----10--8---|
D#|--------------------|6-6-6-6-6-6-6-6-6-6-|5-5-5-5-5-5-5-5-5-5-|

D#|--------------------|--------------------|
A#|--------------------|--------------------|
F#|--------------------|------------2---2---|
C#|------------2-------|------------2---2---|
G#|--8---7-----x---5---|--5---4---0-0-0-0---|
D#|3-3-3-3-3-1-1-1-1-1-|0-0-0-0-0-----------|

Sinon, pour des morceaux plus débutants, y'a Iron Man de Ozzy Osbourne ( ou Black Sabbath, je suis pas sur ), I Died For You, de Iced Earth, Enter Sandman de Metallica, à part ça, je n'en connais pas beaucoup, ( en fait, je les ai oblier ... je fais beaucoup plus d'exercice et de gammes )
0
0
Topic : Vos solos preferé!!!!!!
#25
21/11/2006 02:15:58
Les solos que je serais capable de jouer :

Time, Pink Floyd
Home, Dream Theater, ( une partie )

les autres je vais attendre encore un peu, mais je vais les faire un jour
0
0
Topic : Cuisine!
#26
20/11/2006 01:19:50
Je me rapelle du 50ième anniversaire de mariage de la tante à mon père, j'avais mangé une poitrine de poulet (désossé) avec une sauce au miel, raisin et amande, servi avec de la purée de pomme de terre avec un peu de romarin dessus...

c'était délissieux
pour le matin, 1 tranche de pain (non rotie) avec du beurre d'arachide dessus, et une autre tranche (non rotie aussi) avec du nutella et tu colle sa ensemble  sinon, les 2 avec du beurre d'arachide, et tu met des pépite (capuchon) de chocolat entre tes 2 tranches... ça remplie bien un estomac le matin, ou encore le midi
0
0
Topic : debutant et GP
#27
20/11/2006 01:03:49
commence par l'habituer à alterner quand il joue (b = coup vers le bas, h = vers le haut) :
  B H B H B H B H  B H B H B H B H  B H B H B H B H  B H B H B H B H
E|----------------|----------------|----------------|----------------|
B|----------------|----------------|----------------|----------------|
G|----------------|----------------|----------------|0-0-0-0-0-0-0-0-|
D|----------------|----------------|0-0-0-0-0-0-0-0-|----------------|
A|----------------|0-0-0-0-0-0-0-0-|----------------|----------------|
E|0-0-0-0-0-0-0-0-|----------------|----------------|----------------|

  B H B H B H B H  B H B H B H B H  B H B H B H B H  B H B H B H B H
E|----------------|0-0-0-0-0-0-0-0-|----------------|----------------|
B|0-0-0-0-0-0-0-0-|----------------|0-0-0-0-0-0-0-0-|----------------|
G|----------------|----------------|----------------|0-0-0-0-0-0-0-0-|
D|----------------|----------------|----------------|----------------|
A|----------------|----------------|----------------|----------------|
E|----------------|----------------|----------------|----------------|

  B H B H B H B H  B H B H B H B H  B H B H B H B H  B H B H B H B H
E|----------------|----------------|----------------|----------------|
B|----------------|----------------|----------------|----------------|
G|----------------|----------------|----------------|----------------|
D|0-0-0-0-0-0-0-0-|----------------|----------------|--------0-0-0-0-|
A|----------------|0-0-0-0-0-0-0-0-|------------0-0-|0-0-0-0---------|
E|----------------|----------------|0-0-0-0-0-0-----|----------------|

  B H B H B H B H  B H B H B H B H  B H B H B H B H  B H B H B H B H
E|----------------|------------0-0-|0-0-0-0---------|----------------|
B|----------------|0-0-0-0-0-0-----|--------0-0-0-0-|0-0-------------|
G|----0-0-0-0-0-0-|----------------|----------------|----0-0-0-0-0-0-|
D|0-0-------------|----------------|----------------|----------------|
A|----------------|----------------|----------------|----------------|
E|----------------|----------------|----------------|----------------|

  B H B H B H B H  B H B H B H B H  B H B H B H B H  B H B H B H B H
E|----------------|----------------|----------------|----------------|
B|----------------|----------------|----------------|--------0-0-0-0-|
G|----------------|----------------|----------------|0-0-0-0---------|
D|0-0-0-0-0-0-----|----------------|--------0-0-0-0-|----------------|
A|------------0-0-|0-0-0-0---------|0-0-0-0---------|----------------|
E|----------------|--------0-0-0-0-|----------------|----------------|

  B H B H B H B H  B H B H B H B H  B H B H B H B H  B H B H B H B H
E|0-0-0-0---------|----------------|----------------|------------0-0-|
B|--------0-0-0-0-|----------------|----------------|--------0-0-----|
G|----------------|0-0-0-0---------|----------------|----0-0---------|
D|----------------|--------0-0-0-0-|----------------|0-0-------------|
A|----------------|----------------|0-0-0-0-----0-0-|----------------|
E|----------------|----------------|--------0-0-----|----------------|

  B H B H B H B H  B H B H B H B H  B H B H B H B H  B H B H B
E|----------------|----------0-----|--------------0-|----------------|
B|0-0-------------|--------0---0---|------------0---|0---------------|
G|----0-0---------|------0-------0-|----------0-----|--0-------------|
D|--------0-0-----|----0-----------|0-------0-------|----0-----------|
A|------------0-0-|--0-------------|--0---0---------|------0---------|
E|----------------|0---------------|----0-----------|--------0-------|
ça devrait l'occuper pour un bon moment

y'a aussi ça (en utilisant tous ces doigts, I=index, M=majeur, A=annulaire, U=auriculaire (petit doigt) ) :
  I M A U I M A U  I M A U I M A U  I M A U I M A U
E|----------------|----------------|--------1-2-3-4-|
B|----------------|----------------|1-2-3-4---------|
G|----------------|--------1-2-3-4-|----------------|
D|----------------|1-2-3-4---------|----------------|
A|--------1-2-3-4-|----------------|----------------|
E|1-2-3-4---------|----------------|----------------|


ensuite :
  I M A U I M A U  I M A U I M A U  I M A U I M A U
E|4-3-2-1---------|----------------|----------------|
B|--------4-3-2-1-|----------------|----------------|
G|----------------|4-3-2-1---------|----------------|
D|----------------|--------4-3-2-1-|----------------|
A|----------------|----------------|4-3-2-1---------|
E|----------------|----------------|--------4-3-2-1-|

puis :
  I M A U I M A U  I M A U I M A U  I M A U I M A U  I M A U I M A U
E|----------------|----------------|----------------|--------1-2-3-4-|
B|----------------|----------------|--------1-2-3-4-|----------------|
G|----------------|--------1-2-3-4-|----------------|1-2-3-4---------|
D|--------1-2-3-4-|----------------|1-2-3-4---------|----------------|
A|----------------|1-2-3-4---------|----------------|----------------|
E|1-2-3-4---------|----------------|----------------|----------------|

et ça continue...    fais lui faire des petits exercice de ce genre, ça le pratiquera à utiliser tout ces doigts, après ça, il pourra jouer beaucoup plus de morceau, il aura plus de facilité

PS: Si tu en veux plus, dis le moi, j'en ai des tonnes d'autres
0
0
Topic : Oreille ou tab?
#28
20/11/2006 00:43:28
Tab, je me concentre plus sur les exercices, et apprendre la théorie pour commencer à composer
0
0
Topic : Vos solos preferé!!!!!!
#29
20/11/2006 00:42:33
Les solos que je joue :

Stairway To Heaven, Led Zeppelin
Fade To Black, Metallica, le solo de la fin

Et ceux que je ne joue pas (certain que je pourrais, mais je ne prend pas le temps de le faire) :

Kick Ass Solo, John Petrucci (sur le cd Once In A Live Time, de Dream Theater)
Time, Pink Floyd
The Glass Prison, Dream Theater
Building The Church, Steve Vai
La Grange, ZZ Top (la version live de G3 à Tokyo en 2005)
Hellrider, Judas Priest
Home, Dream Theater
As I Am, Dream Theater
In The Name Of God, Dream Theater
et plus encore...
0
0

En Live

Guitariste 13 et Thibault_M ont commenté le topic [Vox ad15 VT] de Guitariste 13 il y a 12 heures
Guitariste 13 a commenté la tablature de turbo il y a 15 heures
Guitariste 13 a voté pour la tablature de turbo il y a 15 heures
Guitariste 13 vient tout juste de rejoindre la communauté Sweepyto. Bienvenue ! il y a 1 jour
Serpot vient tout juste de rejoindre la communauté Sweepyto. Bienvenue ! il y a 3 jours
Herick vient tout juste de rejoindre la communauté Sweepyto. Bienvenue ! il y a 1 semaine
Riton91 vient tout juste de rejoindre la communauté Sweepyto. Bienvenue ! il y a 1 semaine
Romanol vient tout juste de rejoindre la communauté Sweepyto. Bienvenue ! il y a 2 semaines
WeeDusty vient tout juste de rejoindre la communauté Sweepyto. Bienvenue ! il y a 2 semaines