ConnexionConnexionInscription
E A D G B E
109 connectés Aller à Slappyto Basse

Red Hot Chili Peppers - One big mob (couplet)

Publié par le
30/03/2006
17779 vues
Moyen 3
Vitesse NormaleNormal speed Vitesse RalentieSlow down speed
E-------------------------------------------------------|
B-------------------------------------------------------|
G-------------------------------------------------------|
D-----4----4 -2-3-4------4----4--------------4---4-2-3-4|
A-------------------------------0-2-3-4-----------------|
E-0-2----2-----------0-2----2------------0-2---2--------|


E-------------------------------------------------------|
B-------------------------------------------------------|
G----------------------4-4-4-4-4-4-4-4-7----------------|
D-----4----4-------2------------------------------------|
A-------------2-4------2-2-2-2-2-2-2-2-4----------------|
E-0-2----2-----------------------------5---x/x----------|

Utilsez une wah wah et une distortion pour jouer ce plan. La mise en place rythmique est là aussi très intéressante. Servez-vous de l'auriculaire pour jouer le Fa# en case 4 corde de Ré.

La wahwah devra être assez douce donc ne l'utilisez pas sur toute sa course mais seulement dans les graves et médiums. Le slide à la fin relance le plan. Descendez bien en bas du manche.

0 Commentaires : réagissez !

1 2 3 4 5
0 notes
Aucun commentaire !

En Live

Tszav vient tout juste de rejoindre la communauté Sweepyto. Bienvenue ! il y a 3 jours
Epic a commenté le topic [Covers guitare] de raphu0403 il y a 1 semaine
FreeBird et pascal'son ont commenté le topic [Le bar est ouvert] de Poppy il y a 2 semaines
ZozoTheBassist a commenté le wall de Fred_Tana il y a 2 semaines
ZozoTheBassist a accepté le message de Fred_Tana il y a 2 semaines
Fred_Tana a commenté le wall de ZozoTheBassist il y a 2 semaines
Myre63 vient tout juste de rejoindre la communauté Sweepyto. Bienvenue ! il y a 2 semaines