ConnexionConnexionInscription
E A D G B E
137 connectés Aller à Slappyto Basse

Joe Satriani - Mountain Song

Publié par le
30/03/2006
21745 vues
Avancé 1
Vitesse NormaleNormal speed Vitesse RalentieSlow down speed
E||-----------------------|----------------------------||
B||-----------------------|----------------------------||
G||-------8----7-------12-|-------8----7---------------||
D||-----------------10----|--------------------10------||
A||----10----6----8-------|----10----6-------8---------||
E||--8--------------------|--8------------6------------||
MG: i A i i m i A a i A i i m i A a


E---------------------|---------------------------------|
B---------------------|---------------------------------|
G--------------10-----|---------12------13--------------|
D-------8----8--------|10----10------10-----------------|
A-----6----6--------8-|----8-------8--------------------|
E---4-------------6---|---------------------------------|
MG: i A a i A a i m a i m a i m a

Il y a 3 difficultés principales:

 - La vitesse est très rapide il faudra donc bien mémoriser le plan en le travaillant lentement
 - Les écarts à la main gauche sont un peu difficile pour les accords "sus2")
 - Il y a des sauts de corde à gérer au médiator donc il faut rester très propre dans le jeu.

N'oubliez pas de jouer ce plan en étouffant les cordes avec la paume de la main droite posée à proximité des pontets.

Observez la vidéo pour la position des doigts.

0 Commentaires : réagissez !

1 2 3 4 5
0 notes
Aucun commentaire !

En Live

James1964 a commenté la tablature de Poppy il y a 21 heures
James1964 vient tout juste de rejoindre la communauté Sweepyto. Bienvenue ! il y a 21 heures
Bouran32 vient tout juste de rejoindre la communauté Sweepyto. Bienvenue ! il y a 1 jour
Hondaka vient tout juste de rejoindre la communauté Sweepyto. Bienvenue ! il y a 2 jours
Sasam a commenté le wall de deni's il y a 5 jours
Pelcat vient tout juste de rejoindre la communauté Sweepyto. Bienvenue ! il y a 1 semaine
Charlot vient tout juste de rejoindre la communauté Sweepyto. Bienvenue ! il y a 1 semaine
Dominique 31 a commenté le wall de bass_5s il y a 2 semaines
Ollyrev vient tout juste de rejoindre la communauté Sweepyto. Bienvenue ! il y a 2 semaines
Risoulaser vient tout juste de rejoindre la communauté Sweepyto. Bienvenue ! il y a 2 semaines