ConnexionConnexionInscription
E A D G B E
238 connectés Aller à Slappyto Basse
Thomann Thomann

Muse - Time is running out [ Artiste ]

Publié par le
25/03/2011
9246 vues
Moyen 1
http://www.youtube.com/watch?v=rYDuNq-a5b4
    
        

Couplets

 Am  |B7   |E    |F  G|

|-0----2----0-----1--3----|
|-1----0----0-----1--3----|
|-2----2----1-----2--0----|
|-2----1----2-----3--0----|
|-0----2----2-----3--2----|
|-----------0-----1--3----|



Thème

|-------------------------------------|
|--5-------4-------------5-6----------|
|------5-------5-------4--------7--4--|
|--------7-------7-6------------------|
|-------------------------------------|
|-------------------------------------|

Pré refrain (jouez chaque double note en PM(palm mute) 8 fois en croche.

|--------------------|
|--------------------|
|-2----4----5-----9--|
|-3----5----7----10--|
|--------------------|
|--------------------|

Refrain

F   |G    |Am   |C   |
F   |G    |Am   |C   | 
Dm  |Am   |Dm   |Am  |
Dm  |Am   |E    |E   |
    
    

2 Commentaires

1 2 3 4 5
1 note
Notes pour Time Is Running Out Guitare Tab - (Muse) | Sweepyto : 4/5 sur 1 note
#2
26/08/2013 20:55:53
yeaaaahhh !!! ça vas rocker du poney dans ma chambre ce soir !
0
0
#1
12/01/2013 21:19:38

Nickel pour un débutant comme moi de pouvoir jouer du Muse !

0
0

En Live

Pharmacie-fr vient tout juste de rejoindre la communauté Sweepyto. Bienvenue ! il y a 2 semaines
Vialinepharma vient tout juste de rejoindre la communauté Sweepyto. Bienvenue ! il y a 2 semaines
Shop-pharmacie a commenté le topic [C'est quoi cette guitare?] de S0ld-out il y a 2 semaines
Shop-pharmacie vient tout juste de rejoindre la communauté Sweepyto. Bienvenue ! il y a 2 semaines
Fribby54 vient tout juste de rejoindre la communauté Sweepyto. Bienvenue ! il y a 3 semaines
Lesyeuves58 vient tout juste de rejoindre la communauté Sweepyto. Bienvenue ! il y a 3 semaines
Saucrate1954 vient tout juste de rejoindre la communauté Sweepyto. Bienvenue ! il y a 3 semaines
ChristoBerney vient tout juste de rejoindre la communauté Sweepyto. Bienvenue ! il y a 3 semaines
RichardBinette vient tout juste de rejoindre la communauté Sweepyto. Bienvenue ! il y a 4 semaines
FrancisProust vient tout juste de rejoindre la communauté Sweepyto. Bienvenue ! il y a 1 mois