ConnexionConnexionInscription
E A D G B E
158 connectés Aller à Slappyto Basse
Thomann Thomann

Linkin Park - Numb [ Artiste ]

Publié par le
16/06/2011
11809 vues
Moyen 1
http://www.youtube.com/watch?v=kXYiU_JCYtU
    
        

Accordage standard (arrangement car sur le CD la guitare est désaccordée)


Thème piano arrangé pour guitare

|----------14---17--16------------------17----16-----------------------------|
|-14-17-14---------------------14-17-14------------17------------------------|
|----------------------------------------------------------------------------|
|----------------------------------------------------------------------------|
|----------------------------------------------------------------------------|
|----------------------------------------------------------------------------|

REFRAIN

F#m     D       A       E     X2


COUPLET 1

plaquer les accords en son clair

F#m     D       A       E
F#m     D       A       E
D       E       F#m     A
D       E 


REFRAIN (plaquer les accords avec de la distorsion)

F#m     D       A       E     X2


COUPLET 2

F#m     D       A       E
F#m     D       A       E
D       E       F#m     A
D       E       F#m     A


REFRAIN 2

F#m     D       A       E     X2


PONT

D       E       F#5 G#5 A5 C#5
D       E       C#5     C#5       
C#5

REFRAIN 3

F#m     D       A       E     X4

OUTRO

|----------14---17--16------------------17----16-----------------------------|
|-14-17-14---------------------14-17-14------------17------------------------|
|----------------------------------------------------------------------------|
|----------------------------------------------------------------------------|
|----------------------------------------------------------------------------|
|----------------------------------------------------------------------------|

    
    

0 Commentaires : réagissez !

1 2 3 4 5
0 notes
Aucun commentaire !

En Live

Japanescort vient tout juste de rejoindre la communauté Sweepyto. Bienvenue ! il y a 2 semaines
Jobar_96 a commenté le test de Reglissette il y a 2 semaines
Zhekee vient tout juste de rejoindre la communauté Sweepyto. Bienvenue ! il y a 2 semaines
Lmawy71236 vient tout juste de rejoindre la communauté Sweepyto. Bienvenue ! il y a 2 semaines
Ducanidaho vient tout juste de rejoindre la communauté Sweepyto. Bienvenue ! il y a 3 semaines
Taneer98236 vient tout juste de rejoindre la communauté Sweepyto. Bienvenue ! il y a 3 semaines
TKSI1521 vient tout juste de rejoindre la communauté Sweepyto. Bienvenue ! il y a 4 semaines
Lehcim vient tout juste de rejoindre la communauté Sweepyto. Bienvenue ! il y a 1 mois