ConnexionConnexionInscription
E A D G B E
97 connectés Aller à Slappyto Basse
Thomann Thomann

Nyan Cat - Nyan Cat [ Artiste ]

Publié par le
10/11/2011
8643 vues
Avancé 1
http://www.youtube.com/watch?v=QH2-TGUlwu4
    
        

E||-----------------------------|---------------------------------|
B||---7--9----------------------|---------------7-9---7-----------|
G||°--------6-8----7-6-------6--|--7--7-6---6-8-----8---6-7-4-6-4-|
D||--------------9-----9--9-----|---------9-----------------------|
A||°----------------------------|---------------------------------|
E||-----------------------------|---------------------------------|


   
|--------------------------------|------------------------------|
|--4--7--9---7---------4---------|-----------7------------------|
|----------8---6-7-4-6---7-6-4-6-|--7--4-6-7---6-7-6-4-6--4--6--|
|--------------------------------|------------------------------|
|--------------------------------|------------------------------|
|--------------------------------|------------------------------|


  
|----------------------------|---------------------------------|
|--7--9----------------------|---------------7-9---7-----------|
|--------6-8----7-6-------6--|--7--7-6---6-8-----8---6-7-4-6-4-|
|-------------9-----9--9-----|---------9-----------------------|
|----------------------------|---------------------------------|
|----------------------------|---------------------------------|


  
|--------------------------------|------------------------------|
|--4--7--9---7---------4---------|-----------7------------------|
|----------8---6-7-4-6---7-6-4-6-|--7--4-6-7---6-7-6-4-6--4--4--|
|--------------------------------|------------------------------|
|--------------------------------|------------------------------|
|--------------------------------|------------------------------|


  
|--------------------------------|--------------------------------|
|--------------------4---5-4-5-7-|----------------5-4-------------|
|--4------4------4-6---6---------|--4--4------4-------6-4---------|
|-----4-6----4-6-----------------|--------4-6---6---------4-----4-|
|--------------------------------|--------------------------6-7---|
|--------------------------------|--------------------------------|


    
|--------------------------------|-------------------------------|
|----------------------4---------|-----------------5-4-5-7-------|
|--4------4------4-4-6---4-------|--4--4-3-4-----4---------4--3--|
|-----4-6----4-6-----------4-6-4-|-----------4-6-----------------|
|--------------------------------|-------------------------------|
|--------------------------------|-------------------------------|


   
|--------------------------------|--------------------------------|
|--------------------4---5-4-5-7-|----------------5-4-------------|
|--4------4------4-6---6---------|--4--4------4-------6-4---------|
|-----4-6----4-6-----------------|--------4-6---6---------4-----4-|
|--------------------------------|--------------------------6-7---|
|--------------------------------|--------------------------------|


   
|--------------------------------|-------------------------------|
|----------------------4---------|-----------------5-4-5-7-------|
|--4------4------4-4-6---4-------|--4--4-3-4-----4---------4--3--|
|-----4-6----4-6-----------4-6-4-|-----------4-6-----------------|
|--------------------------------|-------------------------------|
|--------------------------------|-------------------------------|


  
|----------------------------|---------------------------------|
|--7--9----------------------|---------------7-9---7-----------|
|--------6-8----7-6-------6--|--7--7-6---6-8-----8---6-7-4-6-4-|
|-------------9-----9--9-----|---------9-----------------------|
|----------------------------|---------------------------------|
|----------------------------|---------------------------------|


  
|--------------------------------|------------------------------|
|--4--7--9---7---------4---------|-----------7------------------|
|----------8---6-7-4-6---7-6-4-6-|--7--4-6-7---6-7-6-4-6--4--6--|
|--------------------------------|------------------------------|
|--------------------------------|------------------------------|
|--------------------------------|------------------------------|


   
|----------------------------|---------------------------------|
|--7--9----------------------|---------------7-9---7-----------|
|--------6-8----7-6-------6--|--7--7-6---6-8-----8---6-7-4-6-4-|
|-------------9-----9--9-----|---------9-----------------------|
|----------------------------|---------------------------------|
|----------------------------|---------------------------------|


    
|--------------------------------|------------------------------|
|--4--7--9---7---------4---------|-----------7------------------|
|----------8---6-7-4-6---7-6-4-6-|--7--4-6-7---6-7-6-4-6--4--4--|
|--------------------------------|------------------------------|
|--------------------------------|------------------------------|
|--------------------------------|------------------------------|


   
|--------------------------------|--------------------------------|
|--------------------4---5-4-5-7-|----------------5-4-------------|
|--4------4------4-6---6---------|--4--4------4-------6-4---------|
|-----4-6----4-6-----------------|--------4-6---6---------4-----4-|
|--------------------------------|--------------------------6-7---|
|--------------------------------|--------------------------------|


    
|--------------------------------|-------------------------------|
|----------------------4---------|-----------------5-4-5-7-------|
|--4------4------4-4-6---4-------|--4--4-3-4-----4---------4--3--|
|-----4-6----4-6-----------4-6-4-|-----------4-6-----------------|
|--------------------------------|-------------------------------|
|--------------------------------|-------------------------------|


  
|--------------------------------|--------------------------------|
|--------------------4---5-4-5-7-|----------------5-4-------------|
|--4------4------4-6---6---------|--4--4------4-------6-4---------|
|-----4-6----4-6-----------------|--------4-6---6---------4-----4-|
|--------------------------------|--------------------------6-7---|
|--------------------------------|--------------------------------|


          
|--------------------------------|--------------------------------||
|----------------------4---------|-----------------5-4-5-7--------||
|--4------4------4-4-6---4-------|--4--4-3-4-----4---------4--3--°||
|-----4-6----4-6-----------4-6-4-|-----------4-6------------------||
|--------------------------------|-------------------------------°||
|--------------------------------|--------------------------------||
    
    

0 Commentaires : réagissez !

1 2 3 4 5
3 notes
Notes pour Nyan Cat Guitare Tab - (Nyan Cat) | Sweepyto : 4/5 sur 3 notes
Aucun commentaire !

En Live

Serpot vient tout juste de rejoindre la communauté Sweepyto. Bienvenue ! il y a 11 heures
Herick vient tout juste de rejoindre la communauté Sweepyto. Bienvenue ! il y a 1 semaine
Riton91 vient tout juste de rejoindre la communauté Sweepyto. Bienvenue ! il y a 1 semaine
Romanol vient tout juste de rejoindre la communauté Sweepyto. Bienvenue ! il y a 2 semaines
WeeDusty vient tout juste de rejoindre la communauté Sweepyto. Bienvenue ! il y a 2 semaines
Analogeek a voté pour le message de Poppy il y a 2 semaines
Poppy a voté pour le message de rafikian il y a 2 semaines
Rafikian et Poppy ont commenté le topic [DIY Mini Footswitch pour Marshall JVM 205H] de Poppy il y a 2 semaines
Poppy a voté pour le message de rafikian il y a 2 semaines