ConnexionConnexionInscription
E A D G B E
125 connectés Aller à Slappyto Basse
Thomann Thomann

Adele - Set Fire to the Rain [ Artiste ]

Publié par le
15/11/2011
23231 vues
Moyen 1
http://www.youtube.com/watch?v=FlsBObg-1BQ&feat...
    
        

Après les arpèges jouez une rythmique comme ceci par accord:

RYTHMIQUE : BAS     BAS-HAUT   HAUT-BAS-HAUT


CAPODASTRE en case 5

INTRO ET COUPLETS
                                                         -------------------------  
                                                        | 1

     Am                   C (1e fois)                   G                    Dm  
                        *Em (2e fois)
    
||--0-----------0--------0--|--------------0--1--0-----|-----------------------1--|
||--------1-----------1-----|--------1--------------3--|--------0-----3-----0-----|
||°----2-----2-----2--------|--0--0-----0--------------|-----0-----0-----0--------|
||--------------------------|--------------------------|-----------------------0--|
||°-0--------------------3--|--------------------------|--------------------------|
||-----------------------0*-|--------------------------|--3-----------------------|


----------------------------   -------------------------
                            | | 2
                                                                                    (entrée violons)
                                G                    F                                F                 
                
|--------------1--------0---||--------------------------|--------------------------|--1----------------|
|--------3-----------3------||--------0-----3-----0--1--|--------1-----1--0--------|--1----------------|
|--2--2-----2-----2--------°||-----0-----0-----0--------|-----0-----0--------2--0--|--2----------------|
|---------------------------||--------------------------|--------------------------|--3----------------|
|-----------------------0--°||--------------------------|--------------------------|--3----------------|
|---------------------------||--3-----------------------|--------------------------|--1----------------|


   Dm                  Am                  Am                  F                   G                 
        
|--1----------------|--0----------------|--0----------------|--1----------------|--3----------------|
|--3----------------|--1----------------|--1----------------|--1----------------|--3----------------|
|--2----------------|--2----------------|--2----------------|--2----------------|--0----------------|
|--0----------------|--2----------------|--2----------------|--3----------------|--0----------------|
|-------------------|--0----------------|--0----------------|--3----------------|--2----------------|
|-------------------|-------------------|-------------------|--1----------------|--3----------------|


                      REFRAINS      

   G                    Am                  Am                  G                   G                 
                
|--3-3-3-3-3--------||--0----------------|--0----------------|--3----------------|--3----------------|
|--3-3-3-3-3--------||--1----------------|--1----------------|--3----------------|--3----------------|
|--0-0-0-0-0--------||--2----------------|--2----------------|--0----------------|--0----------------|
|--0-0-0-0-0--------||--2----------------|--2----------------|--0----------------|--0----------------|
|--2-2-2-2-2--------||--0----------------|--0----------------|--2----------------|--2----------------|
|--3-3-3-3-3--------||-------------------|-------------------|--3----------------|--3----------------|


                                                                                  REFRAINS PARTIE 2

   Dm                  Dm                  Am                  G                   Am                
              
|--1----------------|--1----------------|--0----------------|--3----------------||--0----------------|
|--3----------------|--3----------------|--1----------------|--3----------------||--1----------------|
|--2----------------|--2----------------|--2----------------|--0----------------||--2----------------|
|--0----------------|--0----------------|--2----------------|--0----------------||--2----------------|
|-------------------|-------------------|--0----------------|--2----------------||--0----------------|
|-------------------|-------------------|-------------------|--3----------------||-------------------|


   Am                  G                   G                   Dm                  Dm                
             
|--0----------------|--3----------------|--3----------------|--1----------------|--1----------------|
|--1----------------|--3----------------|--3----------------|--3----------------|--3----------------|
|--2----------------|--0----------------|--0----------------|--2----------------|--2----------------|
|--2----------------|--0----------------|--0----------------|--0----------------|--0----------------|
|--0----------------|--2----------------|--2----------------|-------------------|-------------------|
|-------------------|--3----------------|--3----------------|-------------------|-------------------|


                                          PONT

   F                   G                     F              Em             Em             G             
                
|--1----------------|--3----------------||---1-----------|--0-----------|--0-----------|--3------------||
|--1----------------|--3----------------||---1-----------|--0-----------|--0-----------|--3------------||
|--2----------------|--0----------------||°--2-----------|--0-----------|--0-----------|--0-----------°||
|--3----------------|--0----------------||---3-----------|--2-----------|--2-----------|--0------------||
|--3----------------|--2----------------||°--3-----------|--2-----------|--2-----------|--2-----------°||
|--1----------------|--3----------------||---1-----------|--0-----------|--0-----------|--3------------||



    
    

0 Commentaires : réagissez !

1 2 3 4 5
1 note
Notes pour Set Fire To The Rain Guitare Tab - (Adele) | Sweepyto : 5/5 sur 1 note
Aucun commentaire !

En Live

Analogeek a voté pour le message de 36seb il y a 11 heures
Analogeek a commenté le topic [Le bar est ouvert] de Poppy il y a 11 heures
Mk22 a commenté le wall de pastal il y a 11 heures
Vrock81, 36seb et kELDANT ont commenté le topic [Concours Pirate le retour (de la bête)] de 36seb il y a 17 heures
Vrock81 a voté pour le message de kELDANT il y a 17 heures
Vrock81 a voté pour le message de kELDANT il y a 20 heures
Vrock81, FreeBird, 36seb et kELDANT ont commenté le topic [Association de mots] de Arnold Layne il y a 21 heures
36seb et vrock81 ont voté pour le message de kELDANT il y a 3 jours
36seb a voté pour le message de FreeBird il y a 3 jours