ConnexionConnexionInscription
E A D G B E
146 connectés Aller à Slappyto Basse
Thomann Thomann

Allan Holdsworth - Home - Accords [ Artiste ]

Publié par le
09/11/2010
9379 vues
Avancé 4
http://www.deezer.com/listen-2551307
    
        

      G6/9                    C6/9        G/9              F   
                  T                                            
    
E||--------------15-------|-----------------------------------|
B||--------12-------------|--17----------15---------------10--|
G||---9-------------------|--14----14----12---------------10--|
D||--------12-------------|--12-----------9---------------10--|
A||--10-------------------|--15----------12-------------------|
E||-----------------------|-----------------------------------|


   G7b5        F              A9                
                  
--------15----13----------|--------------------|
--12----------10----10----|--17----------------|
--10----------------------|--14----------------|
--11----------10----------|--11----------------|
--------------------------|--14----------------|
--------------------------|--------------------|


   A     E           B9              D7/C#                  D   D9              
                            T                                                   
       
--------------19----19h----21----|--17----------------|--------------12--------|
--14----17----------16-----------|--15----------------|-----7--10--------------|
--14----------------14-----------|--11----------------|-----7---7--------------|
--14----18----------16-----------|--11----------------|-----7--11--------------|
---------------------------------|--------------------|------------------------|
---------------------------------|--------------------|------------------------|


   D9               F#m11                        Em11                         
                                                 |-----3----|                 
   
--17---------------------|-------------------|-------------------------------|
--14---------------------|-------------------|-------------------------------|
-------------------16----|-------------------|--14------------------------9--|
--14---------------14----|-------------------|--12---------------12----------|
--17---------------11----|-------------------|---9----------9------------10--|
-------------------14----|-------------------|--12----12---------------------|


   E7b9#9                    A/9                       F/9    

-----------------15------|-----------------------------------|
---------12--------------|--17------------------------12h-13-|
--10---------------------|--14------------------------12-----|
---------12--------------|--11-------------------------------|
--11---------------------|--14-------------------------------|
-------------------------|-----------------------------------|


   Em7   Dm7   Dbm7(b11)          G7                
             
--------------13p-------12----|--------------------|
--12----10-----9--------------|--15----------------|
--12----10-----8--------------|--12----------------|
--12----10-----9--------------|---9----------------|
------------------------------|--12----------------|
------------------------------|--------------------|


           F#m7b5                C7/B     Am7  Em7         
                                          |-----3----|     
     
-----------------------17----|--15------------------10----|
----------12-----15----------|--13--------5----8----------|
----------12-----------------|---9--------5----5----------|
----------12-----15----------|---9--------5----9----------|
-----------------------------|----------------------------|
-----------------------------|----------------------------|


   Dm9                                      Dm6/9             
        |---3---|   |---3--|  |---3---|                       
              
-----------------------0------0----------|-------------------|
--13----------------------13-------------|-------------------|
-------------------10------------10------|-------------------|
---------------10--------------------10--|--9----------------|
-----------------------------------------|-------------------|
-----------10----------------------------|-------------------|


   C/9                        Dm9                         
   
---------------------------|-----------------------------|
------------------8-----6--|--------------------6--------|
---9--------9-----------9--|--------------9----------12--|
--12-------12----------10--|----------10-------------15--|
--10-------10--------------|-------------------------13--|
--------8------------------|------10-----------------11--|


  Eb/9                       F/9      A7/E        G                      G7b5b9 
     
--------------11-----15--|--15-------15----------15--|-------------------------|
-------11----------------|--10-------14----------12--|-------------------------|
-------------------------|--10-------14----------12--|------------------10-----|
-------------------------|--10-------14----------12--|------------------11-----|
-------------------------|---------------------------|------------------11-----|
-------------------------|---------------------------|-------------------------|


                              G/9         C7/6                             
   T                                                                       
                                                           |----3----|     
    
--15----------------|--------------------------|--------------------------|
--------------------|---------3-----------5----|---------------------5----|
--------------------|---------4------4----4----|----------------4---------|
--------------------|---------7-----------7----|--------------------------|
--------------------|---------4-----------3----|--------------------------|
--------------------|---------3----------------|--------------------------|


  Bb7#5              F6/7                         Am6/9 C6/G     C7      
     
---------------------5----|-------------------|---7-----8-------12------|
--3------------------5----|-------------------|---8----10-------13------|
-----------2---------7----|-------------------|--11----12-------16------|
--4-----------------------|-------------------|---7-----9-------12------|
--1------------------8----|-------------------|-------------------------|
--------------------------|-------------------|-------------------------|


   Eb6/7/D              Ebm7    Ebm6b9      Adim    Bb9                         
                                                               |-----3----|     
       
--15----------------|--18------14----------11---|---8---------------------8----|
--15----------------|--18------13----------13---|--10---------------10---------|
--17----------------|--19------15----------11---|--10------10------------------|
--13----------------|--16------13----------12---|---8--------------------------|
--------------------|---------------------------|------------------------------|
--------------------|---------------------------|------------------------------|


    Bb(9)+5      Bb9                      F7b9/A              
                                                   T          
    |------3-----|    |-----3-----|                           
     
----------10-----8---------------------|-----------1---------|
---11-----------10---------10----------|--7------------------|
---11-----------10---------------10----|--8------------------|
--(10)-----------8---------------------|--7------------------|
---------------------------------------|---------------------|
---------------------------------------|---------------------|


  Ab/9b5                   Db6/7                             
                                             |----3----|     
    
---------------------------------|--------------------------|
--4---------------4--------6-----|---------------------6----|
--5------------------5-----5-----|----------------5---------|
--8------------8-----------8-----|--------------------------|
--5---------5--------------4-----|--------------------------|
--4------4-----------------------|--------------------------|


  Eb/B              Gb6/7                         Bbm6/9 Db6/Ab    Db7     
      
--------------------6-----|-------------------|---8------9--------13------|
--4-----------------6-----|-------------------|---9-----11--------14------|
--3-------3---------8-----|-------------------|--12-----13--------17------|
--5-----------------------|-------------------|---8-----10--------13------|
--2-----------------9-----|-------------------|---------------------------|
--------------------------|-------------------|---------------------------|


   E6/7                 Gamme majeure harmonique -a Fb9        Ab° 
  
--16----------------|--17--------------------------13---------10--|
--16----------------|--15--------------------------12---------12--|
--18----------------|--18--------------------------14---------10--|
--14----------------|--15--------------------------12---------11--|
--------------------|---------------------------------------------|
--------------------|---------------------------------------------|


  A°                           A(9)+5                          
            |----3----|        |-----3----|    |----3----|     
   
--7-------------------7----|---------9----7-------------------|
--9--------------9---------|--10----------9---------9---------|
--9------9-----------------|--10----------9--------------9----|
--7------------------------|--(9)---------7-------------------|
---------------------------|----------------------------------|
---------------------------|----------------------------------|


  E7b9/G#               C/9#5                                A7/C#            
     
-----------0--------|--------------------------|-----------------------------|
--6-----------------|--------------------------|-----------------------------|
--7-----------------|---7-----------7-------9--|----------------------9------|
--6-----------------|---6--------6-----6-------|------7------7---------------|
--------------------|--10----10----------------|--11-----11------------------|
--------------------|---8-------------------9--|-----------------------------|


   Em6         D#m7/11#5                         
   |-----3-----|        |----3----|              
          
------------------------9-----------------------|
------------------------------------------------|
--12----------11--------------------------------|
--------11-----9-----------------------9--------|
--------14-----------------------13-------------|
--12--------------------------------------------|


  C#7/6#9b9             Gamme demi diminuée C#                                  
  |------3------|   |----3------|  |---3---|   |---3---|          
        
-------------------------------------------9----------10----------
-----------------------------------9h--11-------------------------
--------------------9-----------9-------------15--16--------------
----------------9h-----12-----------------------------------------
------------------------------------------------------------------
--9h--------13----------------------------------------------------


   Bm7              F7b5                     
                  
--14---------------14---|-------------------|
--11---------------13---|-------------------|
---7----------------9---|-------------------|
---9---------------11---|-------------------|
--11---------------13---|-------------------|
---7----------------9---|-------------------|


   Bm                               D7          B/G                     
                                                     |--3--|            
         
-----------------7----10-----12----14--------|--2-------------2--------|
------------7----------7------8----14----14--|--4----------4-----------|
---9p--7---------------9-----11----14--------|--4-------4--------------|
--11-------------------7------8--------------|--2----------------------|
---9-----------------------------------------|-------------------------|
---7-----------------------------------------|--3----------------------|


            F°                  Db/A                                        
            |-----3-----|                                                   
                
-----------------10----13----|--------------4----------|-------------------|
-----------12----------------|--6--------6----------7--|-------------------|
-----------10----------------|--6----6-----------------|-------------------|
-----------11----------------|--4----------------------|-------------------|
-----------------------------|-------------------------|-------------------|
-----------------------------|--5----------------------|-------------------|


   Db/9                       Ebm9                      E   
  
---------------------------|-------------------------------|
------------------9-----7--|----------------------7--------|
--10-------10----------10--|---------------10----------13--|
--13-------13----------11--|-----------11--------------16--|
--11-------11--------------|-------------------------------|
--------9------------------|-------11----------------------|


                           Gb/9     Gb9b5        Gb                     Gb7b5b9 
      
------------12-----16--|--16-------16-----------16--|--------------------------|
-----12----------------|--11-------15-----------13--|--------------------------|
-----------------------|--11-------15-----------13--|------------------11------|
-----------------------|--11-------15-----------13--|------------------12------|
-----------------------|----------------------------|------------------12------|
-----------------------|----------------------------|--------------------------|


                              G/9         C7/6                             
                                                           |----3----|     
    
--16----------------|--------------------------|--------------------------|
--------------------|---------3-----------5----|---------------------5----|
--------------------|---------4------4----4----|----------------4---------|
--------------------|---------7-----------7----|--------------------------|
--------------------|---------4-----------3----|--------------------------|
--------------------|---------3----------------|--------------------------|


  Bb7#5              F6/7                         Am6/9 C6/G     C7      
      
---------------------5----|-------------------|---7-----8-------12------|
--3------------------5----|-------------------|---8----10-------13------|
-----------2---------7----|-------------------|--11----12-------16------|
--4-----------------------|-------------------|---7-----9-------12------|
--1------------------8----|-------------------|-------------------------|
--------------------------|-------------------|-------------------------|


   Eb6/7/D              Ebm7    Ebm6b9      Adim    Bb9                         
                                                               |-----3----|     
   
--15----------------|--18------14----------11---|---8---------------------8----|
--15----------------|--18------13----------13---|--10---------------10---------|
--17----------------|--19------15----------11---|--10------10------------------|
--13----------------|--16------13----------12---|---8--------------------------|
--------------------|---------------------------|------------------------------|
--------------------|---------------------------|------------------------------|


    Bb(9)+5      Bb9                      F7b9/A              
                                                   T          
    |------3-----|    |-----3-----|                           
    
----------10-----8---------------------|-----------1---------|
---11-----------10---------10----------|--7------------------|
---11-----------10---------------10----|--8------------------|
--(10)-----------8---------------------|--7------------------|
---------------------------------------|---------------------|
---------------------------------------|---------------------|


  Ab/9b5                   Db6/7                             
  ^                                                          
                                             |----3----|     
   
---------------------------------|--------------------------|
--4---------------4--------6-----|---------------------6----|
--5------------------5-----5-----|----------------5---------|
--8------------8-----------8-----|--------------------------|
--5---------5--------------4-----|--------------------------|
--4------4-----------------------|--------------------------|


  Eb/B              Gb6/7                         Bbm6/9 Db6/Ab    Db7     
     
--------------------6-----|-------------------|---8------9--------13------|
--4-----------------6-----|-------------------|---9-----11--------14------|
--3-------3---------8-----|-------------------|--12-----13--------17------|
--5-----------------------|-------------------|---8-----10--------13------|
--2-----------------9-----|-------------------|---------------------------|
--------------------------|-------------------|---------------------------|


   E6/7                 Dm7     Fb9        Ab°   A°                        
                                                           |----3----|     
    
--16----------------|--17------13---------10--|--7-------------------7----|
--16----------------|--15------12---------12--|--9--------------9---------|
--18----------------|--18------14---------10--|--9------9-----------------|
--14----------------|--15------12---------11--|--7------------------------|
--------------------|-------------------------|---------------------------|
--------------------|-------------------------|---------------------------|


   A(9)+5                            E7b9/G#                         
   |-----3----|    |----3----|                                       
                      
---------9----7-------------------|-----------0--------|-----------||
--10----------9---------9---------|--6-----------------|-----------||
--10----------9--------------9----|--7-----------------|-----------||
--(9)---------7-------------------|--6-----------------|-----------||
----------------------------------|--------------------|-----------||
----------------------------------|--------------------|-----------||
    
    

0 Commentaires : réagissez !

1 2 3 4 5
1 note
Notes pour Home - Accords Guitare Tab - (Allan Holdsworth) | Sweepyto : 5/5 sur 1 note
Aucun commentaire !

En Live

Biwulf a commenté le wall de bigyouth il y a 3 heures