ConnexionConnexionInscription
E A D G B E
89 connectés Aller à Slappyto Basse
Thomann Thomann

Irma - I know [ Artiste ]

Publié par le
21/02/2012
48684 vues
Débutant 3
http://www.youtube.com/watch?v=Mus0XbaGx0M
    
        

Capo 2ème case

Intro + couplets

||--0---0---2---2---3---3---5---5---------------------------------------||
||----0---0---0---0---0---0---5---0-1-----0<1<0-----1<0-4-----4-5-------||
||--------------------------------------0---------0---------4-----------||
||--2-------1-------0-----------------2---------2---------4-------------||
||--------------------------4-------0-------------------2---------------||
||----------------------------------------------------------------------||


Refrain (les coups entre parenthèse sont étouffés)

Accords | Sens de l'attaque

Em      : B B (BHBH)
B       : B B (BH)
C       : B B (BHBH) B B BH B B (BHBH)
B       : B B (BH)

Em      : B B (BHBH)
B       : B B (BH)
C       : B B (BHBH) B B BH B B (BHBH)
B       : B B (BH)

Em      : B B (BHBH)
B       : B B (BH)
C       : B B (BHBH) B B BH
G       : B B BHBH B B BH
C       : B B (BHBH) B B BH
B       : B


Pont

Esus2   : (BH) BB (BHBH)
Dsus2   : BB (BHBH)
Csus2   : BB (BHBH)
Dsus2   : BB (BHBH)

Esus2   : (BH) BB (BHBH)
Dsus2   : BB (BHBH)
Csus2   : BB 
Dsus2   : B


Accords :

  Em     B     C     G      Esus2  Dsus2  Csus2
|--0-----2-----0-----3------7------5------3------|
|--0-----4-----1-----3------7------5------3------|
|--0-----4-----0-----0------9------7------5------|
|--2-----4-----2-----0------9------7------5------|
|--2-----2-----3-----2------7------5------3------|
|--0-----------------3---------------------------|
    
    

2 Commentaires

1 2 3 4 5
4 notes
Notes pour I Know Guitare Tab - (Irma) | Sweepyto : 5/5 sur 4 notes
#2
25/04/2012 04:19:33
, et les accords du pont plus avec les cordes de si et mi aigu à vide... Je suis chiant hein?  
0
0
#1
25/04/2012 04:08:22
, juste pour faire chier, il manque une corde à vide sur l'intro, juste avant le 2 du dernier accord (testé sur gp, et après réécoute ) (et pour faire chier un peu plus, je mettrais bien le dernier 5 en corde à vide sur la corde du dessus pour pas changer le doigté et faire tout sonner)


0
0

En Live

Juju83 a voté pour le message de 36seb il y a 3 heures
Juju83 a voté pour le message de pascal'son il y a 3 heures
Vrock81 a voté pour le message de 36seb il y a 3 heures
36seb et vrock81 ont commenté le topic [Concours Pirate Juin 2017] de vrock81 il y a 4 heures
36seb a voté pour le message de vrock81 il y a 4 heures
Lastyve a commenté le wall de HH il y a 6 heures
Analogeek a voté pour le message de pascal'son il y a 17 heures
Manantsoa a commenté le topic [Covers guitare] de raphu0403 il y a 18 heures