ConnexionConnexionInscription
E A D G B E
144 connectés Aller à Slappyto Basse
Thomann Thomann

Lynyrd Skynyrd - Sweet Home Alabama [ Artiste ]

Publié par le
21/09/2012
23245 vues
Débutant 4
http://www.youtube.com/watch?v=9Cyokaj3BJU
    
        

INTRO

  D            Cadd9              G
e|-------------------------------|--------------------------------|
B|--------3---------------3------|--------------------------------|
G|---------2----------------0----|--------0--0----------------2p0-|
D|--0--0------0---------------0--|-------------------0-2p0--------|
A|--------------3-0-3------------|--------------0h2--------2------|
E|-------------------------------|-3-0-3--------------------------|

  D            Cadd9              G                          1t
|-------------------------------|--------------------------------|
|--------3---------------3------|--------------------------------|
|----------2---------------0----|--------0--0--2p0-0-4p0--0-5b---|
|--0--0------0---------------0--|--------------------------------|
|--------------3-0-3------------|--------------------------------|
|-------------------------------|-3-0-3--------------------------|

  D            Cadd9              G  
|-------------------------------|--------------------------------|
|--------3---------------3------|--------3--3--------------------|
|----------2---------------0----|--------0--0----------------2p0-|
|--0--0------0---------------0--|-------------------0-2p0--------|
|--------------3-0-3------------|--------------0h2--------2------|
|-------------------------------|-3-0-3--------------------------|

  D            Cadd9              G  
|-------------------------------|--------------------------------|
|--------3---------------3------|--------3--3--------------------|
|----------2---------------0----|--------0--0---------0----------|
|--0--0------0---------------0--|-------------------0------------|
|--------------3-0-3------------|--------------0h2---------------|
|-------------------------------|-3-0-3--------------------------|


COUPLETS (Accompagnement)

    D           Cadd9              G                           4X
||-------------------------------|-------3--3-------------------||
||--------3------------3---------|-------3--3-------------------||
||°-------2------------0---------|-------0--0--------0--0------°||
||--0--0--0----0-------2-------0-|-------0--0------0------------||
||°--------------3--3--3---------|-------2--2---0h2-------0h2--°||
||-------------------------------|-3--3-------------------------||


RIFF


||--------------------------------|-----------------------------||
||--------------------------------|-----------------------------||
||°---------7---7------------5--5-|------------0--0------------°||
||----------7---7------------5--5-|----------0------------------||  
||°-7h8h9----------9\7—-5h7-------|-7\0—-0h2-------------------°||
||--------------------------------|-------------------3~~~~-----||




    
    

6 Commentaires

1 2 3 4 5
2 notes
Notes pour Sweet Home Alabama Guitare Tab - (Lynyrd Skynyrd) | Sweepyto : 5/5 sur 2 notes
#6
21/09/2012 20:21:24

On survit  .

0
+1
#5
21/09/2012 20:06:30
?
Poppy

Fallait demander sur Livestream  . En effet ça fait un petit moment mais on est très demandé  .

 Pas grave hein ! Parce que tu vas nous en refaire un bientôt !  

 

Oui, je me doute que ça dois pas être facile de gérer le site en plus du boulot et de la vie privée (bah oui, quand même !)

0
+1
#4
21/09/2012 20:04:45

Fallait demander sur Livestream  . En effet ça fait un petit moment mais on est très demandé  .

0
0
#3
21/09/2012 20:01:36
?
Poppy

C'est pas pour les deb  

 J'avoue, mais y 'a pas moyen que tu nous fasses une 'tite vidéo de cours sur celui-ci ?  (Toujours mon côté chiant qui revient au galop !)

 

Ou alors Tears In Heaven de Clapton (ça fait longtemps qu'on à pas eu de cours sur acoustique ! )

0
0
#2
21/09/2012 19:54:31

C'est pas pour les deb  

0
0

En Live

Epic vient tout juste de rejoindre la communauté Sweepyto. Bienvenue ! il y a 1 jour
CsLolGome vient tout juste de rejoindre la communauté Sweepyto. Bienvenue ! il y a 2 jours
Etirod vient tout juste de rejoindre la communauté Sweepyto. Bienvenue ! il y a 5 jours
Jeanmichel5050 a commenté le wall de francis65 il y a 1 semaine
Jeanmichel5050 vient tout juste de rejoindre la communauté Sweepyto. Bienvenue ! il y a 1 semaine
Doun22 vient tout juste de rejoindre la communauté Sweepyto. Bienvenue ! il y a 1 semaine
Les Paul Inox vient tout juste de rejoindre la communauté Sweepyto. Bienvenue ! il y a 2 semaines
Jo.basse vient tout juste de rejoindre la communauté Sweepyto. Bienvenue ! il y a 2 semaines
Poppy a voté pour le message de 36seb il y a 2 semaines
Erik vient tout juste de rejoindre la communauté Sweepyto. Bienvenue ! il y a 2 semaines