ConnexionConnexionInscription
E A D G B E
145 connectés Aller à Slappyto Basse

Red Hot Chili Peppers - One big mob (intro)

Publié par le
30/03/2006
28760 vues
Avancé 1
Vitesse NormaleNormal speed Vitesse RalentieSlow down speed
E-----------------/14-14-14-14-14-----------------------|
B-----------------/14-14-14-14-14-------------N.A--N.A--|
G----------------------------------------------5----7---|
D------4-x-2-x-4------------------4-x-2-x-4-x-----------|
A------4-x-2-x-4------------------4-x-2-x-4-x-----------|
E-*/*--2-x-0-x-2------------------2-x-0-x-2-x-----------|


E-----------------/14-14-14-14-14-----------------------|
B-----------------/14-14-14-14-14-------------H.A-------|
G----------------------------------------------9-b-rb-b~|
D------4-x-2-x-4------------------4-x-2-x-4-x-----------|
A------4-x-2-x-4------------------4-x-2-x-4-x-----------|
E------2-x-0-x-2------------------2-x-0-x-2-x-----------|


E-----------------/14-14-14-14-14-----------------------|
B-----------------/14-14-14-14-14-----------------------|
G----------------------------------------------7-7-7-7-7|
D------4-x-2-x-4------------------4-x-2-x-4-x-----------|
A------4-x-2-x-4------------------4-x-2-x-4-x-----------|
E------2-x-0-x-2------------------2-x-0-x-2-x-----------|



E-----------------/14-14-14-14-14-----------------------|
B-----------------/14-14-14-14-14-----------------------|
G----------------------------------9-x-8-x-9-x-8-x-6----|
D------4-x-2-x-4-------------------9-x-8-x-9-x-8-x-6----|
A------4-x-2-x-4-------------------7-x-6-x-7-x-6-x-4----|
E------2-x-0-x-2----------------------------------------|

Intro très efficace, notez le slide qui lance le riff.

Alors en première difficulté, il faut passer du haut du manche au bas à la 14ème case.

Ensuite viennent s'ajouter les 2 harmoniques naturelles qui je le rappelle s’effectuent en effleurant la corde au dessus de la frette indiquée. Ensuite vient une harmonique artificielle avec bend et vibrato.
Attention au placement rythmique.

0 Commentaires : réagissez !

1 2 3 4 5
0 notes
Aucun commentaire !

En Live

Lardon : Nouvel interview il y a 2 jours
Anomrak vient tout juste de rejoindre la communauté Sweepyto. Bienvenue ! il y a 2 semaines
Pascal'son a commenté le topic [Le bar est ouvert] de Poppy il y a 3 semaines
Sofiaapolline5 vient tout juste de rejoindre la communauté Sweepyto. Bienvenue ! il y a 3 semaines
Selahbesac vient tout juste de rejoindre la communauté Sweepyto. Bienvenue ! il y a 1 mois
Baluchon vient tout juste de rejoindre la communauté Sweepyto. Bienvenue ! il y a 1 mois
James1964 a commenté la tablature de Poppy il y a 1 mois
James1964 vient tout juste de rejoindre la communauté Sweepyto. Bienvenue ! il y a 1 mois
Bouran32 vient tout juste de rejoindre la communauté Sweepyto. Bienvenue ! il y a 1 mois