ConnexionConnexionInscription
E A D G B E
134 connectés Aller à Slappyto Basse

Ben Harper - Burn One Down (Live)

Publié par le
04/10/2007
51450 vues
Débutant 3
Vitesse NormaleNormal speed Vitesse RalentieSlow down speed
e|---3-3-----3-3--------------------------- 
B|---3-3-----3-3---------------------------
G|---0-0-----0-0--------------------------- (plusieurs fois)
D|------------------------------0----------
A|------------------0-2---3-2-0------------
E|-3-----3-3------3-----3------------------

e|---3-3-----3-3---------------------------
B|---3-3-----3-3---------------------------
G|---0-0-----0-0---------------------------
D|-----------------------------------------
A|------------------0-2--3--2-0------------
E|-3-----3-3------3-----3----------3-------

Ici, on garde la position "accord de Sol" tout le long,
seul l'index et le majeur s'occupe du reste (main droite).

Je la joue au médiator, on peut aussi la jouer aux doigts en laissant le pouce se charger des notes graves,  et laisser les 3 petits doigts s'occuper des aigues! (main gauche).

0 Commentaires : réagissez !

1 2 3 4 5
0 notes
Aucun commentaire !

En Live