ConnexionConnexionInscription
E A D G B E
115 connectés Aller à Slappyto Basse

Pantera - Cemetery Gates - intro

Publié par le
19/02/2011
11233 vues
Débutant 2
Vitesse NormaleNormal speed Vitesse RalentieSlow down speed
    F#m7                        Asus2

E||--------------------------------|--------------------------|
B||---------------------2----------|-----------0--L--0--------|
G||------------------2-------2-----|--------4-----------4-----|
D||---------------2----------------|-----2--------------------|
A||------------4----------------0--|--L-----------------------|
E||--2-----------------------------|-----------------------0--|


E5 Dsus2maj13 F#m7

--------------------------|-----------0--L----------|-------------------------|
-----------0--L--0--------|--------2--------2-------|--------------2----------|
--------4-----------4-----|-----4--------------4----|-----------2-------2-----|
-----2-----------------0--|--L----------------------|--------2----------------|
--------------------------|-------------------------|-----4----------------0--|
--L-----------------------|-------------------------|--2----------------------|



--------------------------|--------------------------|
-----------0--L--0--------|-----------0--L--0--------|
--------4-----------4-----|--------4-----------4-----|
-----2--------------------|-----2-----------------0--|
--L-----------------------|--------------------------|
-----------------------0--|--L-----------------------|



--------------0-----------|
-----2-----------2--------|
--------4-----------4-----|
--L--------0-----------0--|
--------------------------|
--------------------------|

Une intro signée Dimebag Darell.
On joue ici des arpèges à un tempo de 120 à la noire.
Laissez sonner chaque note afin que la mélodie prenne toute son ampleur.
J'utilise le petit doigt, ce qui peut demander un effort supplémentaire à certains, mais avec un peu de pratique, cela ne devrait causer aucun souci (quelques petites crampes tout au plus).

5 Commentaires

1 2 3 4 5
1 note
Notes pour Cemetery Gates - intro - Pantera - Cours de guitare vidéo | Sweepyto : 5/5 sur 1 note
#5
23/11/2012 14:37:42

Aprés avoir écouter l'original je relévé pas mal de note manquante sur ce cours

 

0
0
#4
23/04/2011 00:20:51
peut être dans un prochain cours, mais ce ne sera pas le même niveau
0
0
#3
22/04/2011 23:11:06
Tu nous fais le solo maintenant ?  
0
0
#2
23/02/2011 14:30:58
merci Les "L" ça veut dire "tied note", c'est un peu barbare, mais en fait c'est juste une indication rythmique pour les notes liées. Dans cet exemple, les notes suivient d'un "L" dure une croche de plus.
Les prochaines TAB seront au format GP, ce qui sera plus facile pour le déchiffrage.
0
0
#1
23/02/2011 14:10:43
juste une question, les L sa veut dire quoi? sinon trés bonne tab merci
 
0
0

En Live

Fend vient tout juste de rejoindre la communauté Sweepyto. Bienvenue ! il y a 1 semaine
Instrumonde a commenté le topic [petit nouveau] de lepianiste97 il y a 2 semaines
DroX vient tout juste de rejoindre la communauté Sweepyto. Bienvenue ! il y a 3 semaines
Poppy et Jeep20 ont commenté le topic [Vends Fender CDN240SCE NATURAL 300€ ] de dean116 il y a 1 mois
Joe49 vient tout juste de rejoindre la communauté Sweepyto. Bienvenue ! il y a 1 mois