ConnexionConnexionInscription
E A D G B E
169 connectés Aller à Slappyto Basse

Joe Satriani - Satch boogie

Publié par le
30/03/2006
33447 vues
Shredder
Vitesse NormaleNormal speed Vitesse RalentieSlow down speed
E-------------------------------------------------------|
B-------------------------------------------------------|
G---------------------(1/2t)-2-p0------2----0-----------|
D-----------------------------------------4---0---------|
A--0-3p0-5p0------3--5brbp0-------3p0-4--5----------3p0-|
E------------3-5~-------------------------------2p0-----|
MG= i A i A i A i m Ai Am i m

E-------------------------------------------------------|
B-------------------------------------------------------|
G-------------------------------------------------------|
D-------------------------------------------------------|
A-------------------------------------------------------|
E-3-5~~-------------------------------------------------|
i A

Un titre phare de joe.
 
Nous étudions ici la première partie du thème qui est loin d'être facile à jouer. Il y a beaucoup de liaisons en pull-off. Si vous ne maîtrisez pas cette technique allez faire un tour par ici

Attention aussi à la précision du médiator et au doigté.
 
Mettez une bonne dose de distortion et ne soyez pas tendre avec votre médiator.

1 Commentaire

1 2 3 4 5
0 notes
#1
01/03/2012 16:17:32
Je galère à bien placer le triolet T_T
Déprimant... '
0
+1

En Live

Methasub vient tout juste de rejoindre la communauté Sweepyto. Bienvenue ! il y a 26 minutes
Bbaldach vient tout juste de rejoindre la communauté Sweepyto. Bienvenue ! il y a 1 jour
Jena vient tout juste de rejoindre la communauté Sweepyto. Bienvenue ! il y a 2 jours
Benvertigo a commenté le wall de escaliyo il y a 5 jours
Bootmaker vient tout juste de rejoindre la communauté Sweepyto. Bienvenue ! il y a 1 semaine
Poppy et pascal'son ont commenté le topic [Le bar est ouvert] de Poppy il y a 2 semaines
Poppy a voté pour le message de Marma92 il y a 2 semaines