ConnexionConnexionInscription
E A D G B E
148 connectés Aller à Slappyto Basse
Thomann Thomann

Alain Souchon - Foule sentimentale [ Artiste ]

Publié par le
20/06/2011
14493 vues
Débutant 4
http://www.youtube.com/watch?v=V_SNDGwwGFM
    
        

COUPLET 1 
Accordage standard
Rythmique : Bas-haut-bas-haut pour chaque accord.


          Em       Am       D7       B7         Em       C        Am       B7     
                                                                                   X3
      ||--0-0-0-0--0-0-0-0--2-2-2-0--2-2-2-0--|-0-0-0-0--0-0-0-0--0-0-0-0--2-2-2-0--||
      ||--0-0-0-0--1-1-1-0--1-1-1-0--0-0-0-0--|-0-0-0-0--1-1-1-0--1-1-1-0--0-0-0-0--||
Gtr.1 ||°-0-0-0-0--2-2-2-0--2-2-2-0--2-2-2-0--|-0-0-0-0--0-0-0-0--2-2-2-0--2-2-2-0-°||
      ||--2-2-2-0--2-2-2-0--0-0-0-0--1-1-1-0--|-2-2-2-0--2-2-2-0--2-2-2-0--1-1-1-0--||
      ||°-2-2-2-0--0-0-0-0-----------2-2-2-0--|-2-2-2-0--3-3-3-0--0-0-0-0--2-2-2-0-°||
      ||--0-0-0-0-----------------------------|-0-0-0-0-----------------------------||


REFRAIN 

        Em       C        Am       B7            Em       Am       D7       B7 
                                                                                   X3,5
      ||--0-0-0-0--0-0-0-0--0-0-0-0--2-2-2-0--|--0-0-0-0--0-0-0-0--2-2-2-0--2-2-2-0--||
      ||--0-0-0-0--1-1-1-0--1-1-1-0--0-0-0-0--|--0-0-0-0--1-1-1-0--1-1-1-0--0-0-0-0--||
Gtr.1 ||°-0-0-0-0--0-0-0-0--2-2-2-0--2-2-2-0--|--0-0-0-0--2-2-2-0--2-2-2-0--2-2-2-0-°||
      ||--2-2-2-0--2-2-2-0--2-2-2-0--1-1-1-0--|--2-2-2-0--2-2-2-0--0-0-0-0--1-1-1-0--||
      ||°-2-2-2-0--3-3-3-0--0-0-0-0--2-2-2-0--|--2-2-2-0--0-0-0-0-----------2-2-2-0-°||
      ||--0-0-0-0-----------------------------|--0-0-0-0-----------------------------||



COUPLETS 2 ET 3

      Em - C - Am - B7 - Em - Am- D7 - B7  : 3 fois
    
    

0 Commentaires : réagissez !

1 2 3 4 5
1 note
Notes pour Foule Sentimentale Guitare Tab - (Alain Souchon) | Sweepyto : 2/5 sur 1 note
Aucun commentaire !

En Live

36seb a voté pour le message de ThomasJam il y a 2 jours
36seb a voté pour le message de Manantsoa il y a 2 jours
Manantsoa a commenté le topic [Covers guitare] de raphu0403 il y a 1 semaine