ConnexionConnexionInscription
E A D G B E
189 connectés Aller à Slappyto Basse
Thomann Thomann

Série Télé - Dexter (Générique) [ Artiste ]

Publié par le
11/11/2011
12573 vues
Moyen 4
http://www.youtube.com/watch?v=o-4MrSyayoM
    
        

Arrangement pour une guitare. Le rythme est lent et les doubles croches sont ternaires.

Si vous voulez jouer ce morceau à deux guitares, la mélodie doit être jouée à l'octave et la guitare d'accompagnement 
suit les accordes avec une rythmique ternaire comme à la fin du morceau.

     Em                                                                         Em                           
                                                                       
|-----12-12-12-12-11----------------------------|----------------------||------------------------------|
|--------------------13-12-----8-8-8-8-7--------|----------------------||--------------------------0-1-|
|----------------------------------------10-9---|----------------------||°----4-4----3-4---------------|
|-----------------------------------------------|-2--------2----1------||--2------2-------------2------|
|---------------------------------------------2-|--------2-----------2-||°------2-------------2--------|
|--0------------------------0-------------------|-0--------------------||--0-------------0-------------|


  Am                             F                             G             B7         
   
|------------------------------|-----------------------------|--------------------------|
|------------------------------|-----1-1----0-1-----------1--|-----3-3----2-3------0----|
|--L----2-------------2--------|-----------------------------|--0------0----------------|
|-----------x-2-----------x-2--|--3------3-------------3-----|-------0--------1---------|
|--0-------------0-------------|-------3-------------3-------|----------------2---------|
|------------------------------|--1-------------1------------|--3-----------------------|


  Em                         Am                             F#                         
 
|--------------------------|------------------------------|-----------------------0----|
|--------------------------|--1---------------1-----------|--2-----------2-------------|
|-----4-4---------4-4------|-----2-2------1<2----2-2------|-----3-3---------3-3--------|
|--2------2----2------2----|---------2---------------2----|---------4-----------4------|
|-------2-----------2------|--0---------------0-----------|-------4-----------4--------|
|--0-----------0-----------|------------------------------|--2-----------2-------------|


   B7                      Em                                                                    
   
|------------------2-----|-----7---7---7-0-0---7---7---7-0-0-|----7---7---7-0-0---7---7---7---7--||
|---4----2----4----------|-----8---8---8-x-x---8---8---8-x-x-|----8---8---8-x-x---8---8---8---8--||
|-------------4----2-----|-----9---9---9-x-x---9---9---9-x-x-|----9---9---9-x-x---9---9---9---9-°||
|------------------------|-----9---9---9-------9---9---9-----|----9---9---9-------9---9---9---9--||
|--(2)--(2)--(2)--(2)----|-----7---7---7-------7---7---7-----|----7---7---7-------7---7---7---7-°||
|------------------------|--0----0---0-------0---0---0-------|--0---0---0-------0---0---0---0----||
    
    

1 Commentaire

1 2 3 4 5
1 note
Notes pour Dexter (Générique) Guitare Tab - (Série Télé) | Sweepyto : 5/5 sur 1 note
#1
11/11/2011 16:57:11

Génial  

0
0

En Live

Japanescort vient tout juste de rejoindre la communauté Sweepyto. Bienvenue ! il y a 2 semaines
Jobar_96 a commenté le test de Reglissette il y a 3 semaines
Zhekee vient tout juste de rejoindre la communauté Sweepyto. Bienvenue ! il y a 3 semaines
Lmawy71236 vient tout juste de rejoindre la communauté Sweepyto. Bienvenue ! il y a 3 semaines
Ducanidaho vient tout juste de rejoindre la communauté Sweepyto. Bienvenue ! il y a 3 semaines
Taneer98236 vient tout juste de rejoindre la communauté Sweepyto. Bienvenue ! il y a 4 semaines
TKSI1521 vient tout juste de rejoindre la communauté Sweepyto. Bienvenue ! il y a 1 mois
Lehcim vient tout juste de rejoindre la communauté Sweepyto. Bienvenue ! il y a 1 mois