ConnexionConnexionInscription
E A D G B E
135 connectés Aller à Slappyto Basse
Thomann Thomann

Claude Ciari - La Playa [ Artiste ]

Publié par le
22/03/2012
22143 vues
Moyen 2
http://www.youtube.com/watch?v=KaNTGpnK84o&feat...
    
        

              
  
                                             La Playa                                               

L = Note liée avec la suivante de même hauteur.

Solo = noire = 110

E||-------------0-1-3-5------|-------------5-6-8-10------|-----9-10-12-10-9-6-5-6-5---5------|
B||-------3-2-3--------------|-------8-7-8---------------|--------------------------8----6-5-|
G||--------------------------|---------------------------|-----------------------------------|
D||--------------------------|---------------------------|-----------------------------------|
A||--------------------------|---------------------------|-----------------------------------|
E||--------------------------|---------------------------|-----------------------------------|
   Intro

                                                  Dm                     Gm                     

|--------------------|-------------------------||----------------------|------------------------|
|--------------------|-------------------------||----------------------|------------------------|
|--7-----------------|----------------------0--||--2-------------------|--3------2--0-----------|
|--------------------|-------------------3-----||--------------3----0--|---------------3--2--0--|
|--------------------|-------5--4--5--7--------||----------------------|------------------------|
|--------------------|-------------------------||----------------------|------------------------|


   A7                                                                                     

|--------------------|-------------------|----------------------|------------------------|
|--------------------|-------------------|----------------------|------------------------|
|--------------------|-------------------|----------------------|--0------3--2--0--------|
|---------------2----|-------------------|-----------------2----|------------------3--2--|
|--4-----------------|--0----------------|-------0----4---------|------------------------|
|--------------------|-------------------|----------------------|------------------------|


   Dm                                                                  D7                   
 
|------------------------|-------------------|----------------------|----------------------|
|------------------------|-------------------|----------------------|------------1---------|
|------------------------|-------------------|--2-------------------|--3------2---------3--|
|--3--------L--5--5/--7--|--7----------------|--------------3----0--|----------------------|
|------------------------|-------------------|----------------------|----------------------|
|------------------------|-------------------|----------------------|----------------------|


   Gm                   Gm6                    Dm                          A7                        
                                                        |----3----|                 |----3----|     

|--------------------|----------------------|---------------------------|---------------------------|
|--------------------|----------------------|---------------------------|---------------------------|
|--0--------0--------|--L----0----3------2--|-----------------3----2----|-----------------3----2----|
|--------------------|----------------------|--3------0--L--------------|--2------------------------|
|--------------------|----------------------|---------------------------|---------4--L--------------|
|--------------------|----------------------|---------------------------|---------------------------|


   Dm                                       Dm                     Gm                     
 
|-------------------|-------------------|--/5-------------------|--6------5--------------|
|-------------------|-------------------|---------------6-------|------------8--6--5-----|
|-------------------|-------------------|--------------------7--|---------------------7--|
|--0----------------|--L----------------|-----------------------|------------------------|
|-------------------|-------------------|-----------------------|------------------------|
|-------------------|-------------------|-----------------------|------------------------|


   A7                                                                                        

|---------------------|---------------------|----------------------|---------6--5-----------|
|----------------5----|---------------------|-----------------5----|--8------------8--6--5--|
|--6------------------|--2------------------|------------6---------|------------------------|
|---------------------|---------------------|-------7--------------|------------------------|
|---------------------|---------------------|----------------------|------------------------|
|---------------------|---------------------|----------------------|------------------------|


   Dm                                                                  D7                   
  
|--------------3--3/--5--|--5----------------|--5-------------------|--6--------5--8----6--|
|--6--------L------------|-------------------|--------------6-------|----------------------|
|------------------------|-------------------|-------------------7--|----------------------|
|------------------------|-------------------|----------------------|----------------------|
|------------------------|-------------------|----------------------|----------------------|
|------------------------|-------------------|----------------------|----------------------|


   Gm                   Gm6                    Dm                          A7                        
                                                        |----3----|                 |----3----|     
 
|--------------------|--------------6----5--|-----------------6----5----|-----------------6----5----|
|--8--------8--------|--L--------8----------|--6------------------------|--5------------------------|
|--------------------|----------------------|---------7--L--------------|---------6--L--------------|
|--------------------|----------------------|---------------------------|---------------------------|
|--------------------|----------------------|---------------------------|---------------------------|
|--------------------|----------------------|---------------------------|---------------------------|


   Dm                  D7                       Gm                       C7                    
                                                                                   
     
|-------------------|-------5----6-----8----|--10------12--10--------|---L----------5----6----|
|-------------------|-------7----8----10----|--11------13--11--------|---L-----8----6----8----|
|--7----------------|-----------------------|------------------------|---------9--------------|
|-------------------|-----------------------|------------------------|------------------------|
|-------------------|-----------------------|------------------------|------------------------|
|-------------------|-----------------------|------------------------|------------------------|


     F                    Dm                      Gm6                    A7                         
                                                                                   |----3----|     

|---/8----------------|---L---------------5----|--6-------8--6--------|--L-------------------------|
|--/10----------------|---L-----6----8----6----|--8------10--8--------|--L-----5----L----6----8----|
|---------------------|---------7----9---------|----------------------|--------6----L----7----9----|
|---------------------|------------------------|----------------------|----------------------------|
|---------------------|------------------------|----------------------|----------------------------|
|---------------------|------------------------|----------------------|----------------------------|


   Dm                  D7                                                C7                    
  
|--5----------------|-------5----6-----8----|--10------12--10--------|---L----------5----6----|
|--6----------------|-------7----8----10----|--11------13--11--------|---L-----8----6----8----|
|-------------------|-----------------------|------------------------|---------9--------------|
|-------------------|-----------------------|------------------------|------------------------|
|-------------------|-----------------------|------------------------|------------------------|
|-------------------|-----------------------|------------------------|------------------------|


    F                    Dm                      Gm                                           
 
|---8----------------|---L---------------5----|--6-------8--6--------|--L----------8------6--|
|--10----------------|---L-----6----8----6----|--8------10--8--------|--L--------------------|
|--------------------|---------7----9---------|----------------------|--------9--------------|
|--------------------|------------------------|----------------------|-----------------------|
|--------------------|------------------------|----------------------|-----------------------|
|--------------------|------------------------|----------------------|-----------------------|


                                                     Dm                     Gm                     
  
|--5--------------------|---------6--5-----------|--/5-------------------|--6------5--------------|
|-----------------5--6--|--8------------8--6--5--|---------------6-------|------------8--6--5-----|
|--------------6--------|------------------------|--------------------7--|---------------------7--|
|-----------7-----------|------------------------|-----------------------|------------------------|
|-----------------------|------------------------|-----------------------|------------------------|
|-----------------------|------------------------|-----------------------|------------------------|


   A7                                                                                        
 
|---------------------|---------------------|----------------------|---------6--5-----------|
|----------------5----|---------------------|-----------------5----|--8------------8--6--5--|
|--6------------------|--2------------------|------------6---------|------------------------|
|---------------------|---------------------|-------7--------------|------------------------|
|---------------------|---------------------|----------------------|------------------------|
|---------------------|---------------------|----------------------|------------------------|


   Dm                                                                  D7                   
   
|--------------3--3/--5--|--5----------------|--5-------------------|--6--------5--8----6--|
|--6--------L------------|-------------------|--------------6-------|----------------------|
|------------------------|-------------------|-------------------7--|----------------------|
|------------------------|-------------------|----------------------|----------------------|
|------------------------|-------------------|----------------------|----------------------|
|------------------------|-------------------|----------------------|----------------------|


   Gm                   Gm6                    Dm                          A7                        
                                                        |----3----|                 |----3----|     
 
|--------------------|--------------6----5--|-----------------6----5----|-----------------6----5----|
|--8--------8--------|--L--------8----------|--6------------------------|--5------------------------|
|--------------------|----------------------|---------7--L--------------|---------6--L--------------|
|--------------------|----------------------|---------------------------|---------------------------|
|--------------------|----------------------|---------------------------|---------------------------|
|--------------------|----------------------|---------------------------|---------------------------|


   Dm                                                                       
    
|-----------------------|--------------------5-----|--------7--------L----||
|-----------------------|--------6--------6--------|-----6----------------||
|--7------7----5--------|-----7--------7-----------|--7-------------------||
|-----------------------|--7--------7-----------7--|----------------------||
|--------------------5--|--------------------------|----------------------||
|-----------------------|--------------------------|----------------------||
                                                  
  Rall...............

|--------------3--3/--5--|--5----------------|--5-------------------|--6--------5--8----6--|
|--6--------L------------|-------------------|--------------6-------|----------------------|
|------------------------|-------------------|-------------------7--|----------------------|
|------------------------|-------------------|----------------------|----------------------|
|------------------------|-------------------|----------------------|----------------------|
|------------------------|-------------------|----------------------|----------------------|


   Gm                   Gm6                    Dm                          A7                        
                                                        |----3----|                 |----3----|     
 
|--------------------|--------------6----5--|-----------------6----5----|-----------------6----5----|
|--8--------8--------|--L--------8----------|--6------------------------|--5------------------------|
|--------------------|----------------------|---------7--L--------------|---------6--L--------------|
|--------------------|----------------------|---------------------------|---------------------------|
|--------------------|----------------------|---------------------------|---------------------------|
|--------------------|----------------------|---------------------------|---------------------------|


   Dm                  D7                       Gm                       C7                    
                                                                                   
     
|-------------------|-------5----6-----8----|--10------12--10--------|---L----------5----6----|
|-------------------|-------7----8----10----|--11------13--11--------|---L-----8----6----8----|
|--7----------------|-----------------------|------------------------|---------9--------------|
|-------------------|-----------------------|------------------------|------------------------|
|-------------------|-----------------------|------------------------|------------------------|
|-------------------|-----------------------|------------------------|------------------------|


     F                    Dm                      Gm6                    A7                         
                                                                                   |----3----|     

|---/8----------------|---L---------------5----|--6-------8--6--------|--L-------------------------|
|--/10----------------|---L-----6----8----6----|--8------10--8--------|--L-----5----L----6----8----|
|---------------------|---------7----9---------|----------------------|--------6----L----7----9----|
|---------------------|------------------------|----------------------|----------------------------|
|---------------------|------------------------|----------------------|----------------------------|
|---------------------|------------------------|----------------------|----------------------------|


   Dm                  D7                                                C7                    
  
|--5----------------|-------5----6-----8----|--10------12--10--------|---L----------5----6----|
|--6----------------|-------7----8----10----|--11------13--11--------|---L-----8----6----8----|
|-------------------|-----------------------|------------------------|---------9--------------|
|-------------------|-----------------------|------------------------|------------------------|
|-------------------|-----------------------|------------------------|------------------------|
|-------------------|-----------------------|------------------------|------------------------|


    F                    Dm                      Gm                                           
 
|---8----------------|---L---------------5----|--6-------8--6--------|--L----------8------6--|
|--10----------------|---L-----6----8----6----|--8------10--8--------|--L--------------------|
|--------------------|---------7----9---------|----------------------|--------9--------------|
|--------------------|------------------------|----------------------|-----------------------|
|--------------------|------------------------|----------------------|-----------------------|
|--------------------|------------------------|----------------------|-----------------------|


                                                     Dm                     Gm                     
  
|--5--------------------|---------6--5-----------|--/5-------------------|--6------5--------------|
|-----------------5--6--|--8------------8--6--5--|---------------6-------|------------8--6--5-----|
|--------------6--------|------------------------|--------------------7--|---------------------7--|
|-----------7-----------|------------------------|-----------------------|------------------------|
|-----------------------|------------------------|-----------------------|------------------------|
|-----------------------|------------------------|-----------------------|------------------------|


   A7                                                                                        
 
|---------------------|---------------------|----------------------|---------6--5-----------|
|----------------5----|---------------------|-----------------5----|--8------------8--6--5--|
|--6------------------|--2------------------|------------6---------|------------------------|
|---------------------|---------------------|-------7--------------|------------------------|
|---------------------|---------------------|----------------------|------------------------|
|---------------------|---------------------|----------------------|------------------------|


   Dm                                                                  D7                   
   
|--------------3--3/--5--|--5----------------|--5-------------------|--6--------5--8----6--|
|--6--------L------------|-------------------|--------------6-------|----------------------|
|------------------------|-------------------|-------------------7--|----------------------|
|------------------------|-------------------|----------------------|----------------------|
|------------------------|-------------------|----------------------|----------------------|
|------------------------|-------------------|----------------------|----------------------|


   Gm                   Gm6                    Dm                          A7                        
                                                        |----3----|                 |----3----|     
 
|--------------------|--------------6----5--|-----------------6----5----|-----------------6----5----|
|--8--------8--------|--L--------8----------|--6------------------------|--5------------------------|
|--------------------|----------------------|---------7--L--------------|---------6--L--------------|
|--------------------|----------------------|---------------------------|---------------------------|
|--------------------|----------------------|---------------------------|---------------------------|
|--------------------|----------------------|---------------------------|---------------------------|


   Dm                                                                       
    
|-----------------------|--------------------5-----|--------7--------L----||
|-----------------------|--------6--------6--------|-----6----------------||
|--7------7----5--------|-----7--------7-----------|--7-------------------||
|-----------------------|--7--------7-----------7--|----------------------||
|--------------------5--|--------------------------|----------------------||
|-----------------------|--------------------------|----------------------||
                                                   Rall...............
    
    

3 Commentaires

1 2 3 4 5
0 notes
#3
24/03/2012 08:29:45
Merci jeguil pour l'explication.
0
0
#2
24/03/2012 00:22:20
Le "L" signifie "liaison".
La note -L- est liée à la précédente, même hauteur même note mais la durée peut varier.
0
+1
#1
22/03/2012 23:58:27
L=?
0
0

En Live

Biwulf a commenté le wall de bigyouth il y a 3 jours