ConnexionConnexionInscription
E A D G B E
106 connectés Aller à Slappyto Basse
Thomann Thomann

Beatles - Something [ Artiste ]

Publié par le
21/09/2012
11770 vues
Moyen 1
http://www.youtube.com/watch?v=IrW7dlDHH28
    
        

COUPLET 1 et 2

  F    Eb G      C      C7M      C7      F   E     D       G     Am   Am7M  Am7   D     F    Eb G

|-5----6--3-||---0---|---0---|---0---|---1-----|---2---|---3---|--0----0--|--0----2--|-5----6--3--||
|-6----8--3-||---1---|---0---|---1---|---1-----|---3---|---0---|--1----1--|--1----3--|-6----8--3--||
|-5----8--4-||°--0---|---0---|---3---|---2-----|---2---|---0---|--2----1--|--0----2--|-5----8--4-°||
|-7----8--5-||---2---|---2---|---2---|---3-----|---0---|---0---|--2----2--|--2----0--|-7----8--5--||
|-8----6--5-||°--3---|---3---|---3---|---3-----|-------|---2---|--0----0--|--0-------|-8----6--5-°||
|---------3-||-------|-------|-------|---1---0-|-------|---3---|----------|----------|---------3--||

PARTIE B                                   _________________   ____________
                                          | 1               | |2

|-0-----||--0----0--|--2----0--|--2----3--|--0--------------||-0-----------|
|-2-----||--2----2--|--2----0--|--3----3--|--2--------------||-1-----------|
|-2-----||°-2----1--|--2----1--|--2----0--|--2-------------°||-0-----------|
|-2-----||--2----2--|--4----2--|--0----0--|--2--------------||-2-----------|
|-0-----||°-0----0--|--4----2--|-------2--|--0-------------°||-3-----------|
|-------||----------|--2----0--|-------3--|----4--3--2--1-0-||-------------|


FIN

  F    Eb G     A     F    Eb G  
 
|-5----6--3-|---0---|-5----6--3-|---0---|
|-6----8--3-|---2---|-6----8--3-|---1---|
|-5----8--4-|---2---|-5----8--4-|---3---|
|-7----8--5-|---2---|-7----8--5-|---2---|
|-8----6--5-|---0---|-8----6--5-|---3---|
|---------3-|-------|---------3-|-------|



    
    

0 Commentaires : réagissez !

1 2 3 4 5
0 notes
Aucun commentaire !

En Live

Biwulf a commenté le wall de bigyouth il y a 2 jours