ConnexionConnexionInscription
E A D G B E
124 connectés Aller à Slappyto Basse
Thomann Thomann

Allan Holdsworth - Home - Solo 1ère partie [ Artiste ]

Publié par le
09/11/2010
4410 vues
Avancé 4
http://www.deezer.com/listen-2551307
    
        

      
                          
                                                                   
|--------------------------------------------------------------|
|-------------------------------------------------------12-14--|
|---------------------------------------9--11--11-13-14--------|
|-----------------------------------12-------------------------|
|-------------------------------11-----------------------------|
|--------------------------------------------------------------|


              
                                                                      
|-------------------------------------|-------------------------------|
|--15---------15g14----10----------12-|-------------------------------|
|---------------------------11--------|-------------------------------|
|-------------------------------------|-------------------------9--8--|
|-------------------------------------|-------------------8--7--------|
|-------------------------------------|-------------------------------|


  
                                                                        
|----------------------------------------|------------------------------|
|---------------------------10--8--6--5--|--6---------------------------|
|--7--9--11--7---------------------------|-----------------------10--7--|
|---------------8--7--8------------------|------------------------------|
|----------------------------------------|------------------------------|
|----------------------------------------|------------------------------|


  
                                                
|-----------------------------------------------|
|--------------------------13--10-----------11--|
|--9----------------9--12-------------(12)------|
|-----10-- ------12-----------------------------|
|-----------------------------------------------|
|-----------------------------------------------|


                  
                                 
|--------------------------------|
|--10----------------------------|
|--------------------------------|
|------13--12--13----------------|
|--------------------------------|
|--------------------------------|

  

                                           
|------------------------------------------------|
|--------------------13--15--16-----16-18----16--|
|------------11--15------------------------------|
|--------15--------------------------------------|
|------------------------------------------------|
|------------------------------------------------|


            
                                                                              
|------------------------------------|----------------------------------------|
|--15--13----------------------------|-------------13--15--15p--13------------|
|----------15--14--------------------|---------15-----------------------------|
|----------------------------10--15--|--15g16---------------------------------|
|------------------------------------|----------------------------------------|
|------------------------------------|----------------------------------------|


  
|---------------------------------13-10---8-11-|
|------------7-10-13-----------12--------------|
|--------------------(7)-10-13-----------------|
|----7-10-13-----------------------------------|
|----------------------------------------------|
|----------------------------------------------|


               
   
|--10------------------------------------|---------------8------------------|
|-------11-8-9- -------------------------|------------9---------------------|
|----------------10-8-7------------------|--5--8--10------------------------|
|--------------------------10-8-6--5-----|----------------------------------|
|-------------------------------------8--|-----------------------------8-13-|
|----------------------------------------|----------------------------------|


                   
                                                                
|--------------------------------------------|---------------------------------|
|----------------------------------------11--|--9--7------7--------------------|
|-------------12--10-------------------------|--------10--------------13-11-10-|
|------9--13----------13--9--8--9------------|---------------------------------|
|--10----------------------------------------|---------------------------------|
|--------------------------------------------|---------------------------------|

 
                                    
|--------------------------------------------9--11--|
|--------14--------------------------11--12---------|
|----11----------15--13--11--10--11-----------------|
|---------------------------------------------------|
|---------------------------------------------------|
|---------------------------------------------------|


                      
                                                            
|------9------------------------|-------------------7--9------7------10--12--|
|-------12p-9-------------------|---------------10--------10-----10----------|
|-------------11p-9-8-9---------|--------9--10-------------------------------|
|-------------------------------|-----9--------------------------------------|
|-------------------------------|--------------------------------------------|
|-------------------------------|--------------------------------------------|


    
                                                                              
|--9----------------(7)--(10)--(9)---------|----------------------------------|
|-------------(10)-------------------------|--------10--9--7-----7--9---------|
|--------(9)-------------------------------|------------------9---------------|
|------------------------------------------|----------------------------------|
|------------------------------------------|----------------------------------|
|------------------------------------------|----------------------------------|

    
    

0 Commentaires : réagissez !

1 2 3 4 5
0 notes
Aucun commentaire !
Tablatures précédentes

En Live

36seb a voté pour le message de ThomasJam il y a 3 jours
36seb a voté pour le message de Manantsoa il y a 3 jours
Manantsoa a commenté le topic [Covers guitare] de raphu0403 il y a 1 semaine