ConnexionConnexionInscription
E A D G B E
121 connectés Aller à Slappyto Basse
Thomann Thomann

System Of A Down - Chop Suey ! [ Artiste ]

Publié par le
22/12/2010
12576 vues
Moyen 1
http://www.deezer.com/listen-862919
    
        

Guitare accordée 1 ton en dessous. 


   Intro

D||--------------------------------|---------------------------------|
A||--------------------------------|---------------------------------|
F||*--5--5-5---5-5--5-5-5-5-5--5-5-|--5/-7--7-7-7-7--7-7-7-7-7--7-7\-|
C||---7--7-7---7-7--7-7-7-7-7--7-7-|--7/-9--9-9-9-9--9-9-9-9-9--9-9\-|
G||*--0--0-0---0-0--0-0-0-0-0--0-0-|--0-----0-0-0-0--0-0-0-0-0--0-0--|
C||--------------------------------|---------------------------------|


    3x  
|------------------------------|------------------------------||-----------------------------|
|------------------------------|------------------------------||-----------------------------|
|--4--4-4-4-4-4--4-4-4-4-4\----|--2--2-2-2-2-2--2-2-2-2-2----*||--5---5-5-5-5----5-5-5-5--5--|
|--5--5-5-5-5-5--5-5-5-5-5\----|--3--3-3-3-3-3--3-3-3-3-3-----||--7---7-7-7-7----7-7-7-7--7--|
|--0--0-0-0-0-0--0-0-0-0-0-----|--0--0-0-0-0-0--0-0-0-0-0----*||--0---0-0-0-0----0-0-0-0--0--|
|------------------------------|------------------------------||-----------------------------|



|-----------------------------|----------------------------|--------------------------|
|-----------------------------|----------------------------|--------------------------|
|--7---7-7-7-7----7-7-7-7--7--|--4---4-4-4-4----4-4-4-4----|--2--2--2--2--2--2--2--2--|
|--9---9-9-9-9----9-9-9-9--9--|--5---5-5-5-5----5-5-5-5----|--3--3--3--3--3--3--3--3--|
|--0---0-0-0-0----0-0-0-0--0--|--0---0-0-0-0----0-0-0-0----|--0--0--0--0--0--0--0--0--|
|-----------------------------|----------------------------|--------------------------|


  Son distorsion
 
||-----------------------------------|-----------------------------------------------||
||-----------------------------------|-----------------------------------------------||
||*----------------------------------|----------------------------------------------*||
||-----------------------------------|-----------------------------------------------||
||*--8-7-8-7-8-7-8-7-7-6-7-6-7-6-7-7-|--10-9-10-9-10-9-10-9-12-10-12-10-12-10-12-10-*||
||---8-7-8-7-8-7-8-7-7-6-7-6-7-6-7-7-|--10-9-10-9-10-9-10-9-12-10-12-10-12-10-12-10--||


   
||---------------------------------|----------------------------------------||
||---------------------------------|----------------------------------------||
||*--------------------------------|---------------------------------------*||
||---------------------------------|----------------------------------------||
||*--------------------------------|---------------------------------------*||
||---7-7-7-7-7-7-7--6-6-6-6-6-6-6--|--9-9-9-9-9-9-9--12-12-12-12-12-12-12---||



  Couplet
 
||------------------------------|------------------------------|-----------------------------|
||------------------------------|------------------------------|-----------------------------|
||------------------------------|------------------------------|-----------------------------|
||------------------------------|------------------------------|-----------------------------|
||--8-7---------8-7-8-7-8-7-8-7-|--7-6---------7-6-7-6-7-6-7-6-|--8-7--------8-7-8-7-8-7-8-7-|
||--8-7---------8-7-8-7-8-7-8-7-|--7-6---------7-6-7-6-7-6-7-6-|--8-7--------8-7-8-7-8-7-8-7-|



|------------------------------|------------------------------|------------------------------|
|------------------------------|------------------------------|------------------------------|
|------------------------------|------------------------------|------------------------------|
|------------------------------|------------------------------|------------------------------|
|--7-6---------7-6-7-6-7-6-7-6-|--8-7---------8-7-8-7-8-7-8-7-|--7-6---------7-6-7-6-7-6-7-6-|
|--7-6---------7-6-7-6-7-6-7-6-|--8-7---------8-7-8-7-8-7-8-7-|--7-6---------7-6-7-6-7-6-7-6-|


                                                               Refrain (arrangement)

                                                                 Am                     
 
|------------------------------|------------------------------||--0----0----0--0--0--0--|
|------------------------------|------------------------------||--0----0----0--0--0--0--|
|------------------------------|------------------------------||--5----5----5--5--5--5--|
|------------------------------|------------------------------||--7----7----7--7--7--7--|
|--8-7---------8-7-8-7-8-7-8-7-|--7-6---------7-6-7-6-7-6-7-6-||--0----0----0--0--0--0--|
|--8-7---------8-7-8-7-8-7-8-7-|--7-6---------7-6-7-6-7-6-7-6-||------------------------|


   Fmaj13#11                 C                        Fmaj7#11                   
 
|--0-----0----0--0--0--0--|--0----0----0--0--0--0--|--0-----0----0--0--0--0--|
|--0-----0----0--0--0--0--|--0----0----0--0--0--0--|--0-----0----0--0--0--0--|
|--7-----7----7--7--7--7--|--4----4----4--4--4--4--|--2-----2----2--2--2--2--|
|--9-----9----9--9--9--9--|--5----5----5--5--5--5--|--3-----3----3--3--3--3--|
|--8-----8----8--8--8--8--|--3----3----3--3--3--3--|--x-----x----x--x--x--x--|
|-------------------------|------------------------|--3-----3----3--3--3--3--|


   Am                       Fmaj13#11                C                      
  
|--0----0----0--0--0--0--|--0----0----0--0--0--0--|--0----0----0--0--0--0--|
|--0----0----0--0--0--0--|--0----0----0--0--0--0--|--0----0----0--0--0--0--|
|--5----5----5--5--5--5--|--7----7----7--7--7--7--|--4----4----4--4--4--4--|
|--7----7----7--7--7--7--|--9----9----9--9--9--9--|--5----5----5--5--5--5--|
|--0----0----0--0--0--0--|--8----8----8--8--8--8--|--3----3----3--3--3--3--|
|------------------------|------------------------|------------------------|


   Fmaj7#11                    
 
|--0----0----0--0--0--0--||
|--0----0----0--0--0--0--||
|--2----2----2--2--2--2--||
|--3----3----3--3--3--3--||
|--x----x----x--x--x--x--||
|--3----3----3--3--3--3--||
    
    

0 Commentaires : réagissez !

1 2 3 4 5
1 note
Notes pour Chop Suey ! Guitare Tab - (System Of A Down) | Sweepyto : 4/5 sur 1 note
Aucun commentaire !

En Live

Pascal'son et urbamax ont commenté le topic [Le bar est ouvert] de Poppy il y a 1 semaine
Roberti vient tout juste de rejoindre la communauté Sweepyto. Bienvenue ! il y a 2 semaines
Magnum95 vient tout juste de rejoindre la communauté Sweepyto. Bienvenue ! il y a 2 semaines
Samlepecheur vient tout juste de rejoindre la communauté Sweepyto. Bienvenue ! il y a 2 semaines
Quentin2235 vient tout juste de rejoindre la communauté Sweepyto. Bienvenue ! il y a 2 semaines
Dodoro51 vient tout juste de rejoindre la communauté Sweepyto. Bienvenue ! il y a 2 semaines
Eren vient tout juste de rejoindre la communauté Sweepyto. Bienvenue ! il y a 3 semaines
Lylou vient tout juste de rejoindre la communauté Sweepyto. Bienvenue ! il y a 1 mois