ConnexionConnexionInscription
E A D G B E
158 connectés Aller à Slappyto Basse
Thomann Thomann

Radiohead - Knives out [ Artiste ]

Publié par le
22/12/2010
3172 vues
Avancé 1
http://www.deezer.com/listen-4093771
    
        

 
   Couplet 1

    Cm                       Bb6                     Ab   
E||------------------------|------------------------|------------------------|
B||-------------8--8-------|-------------8--8-------|-------------4--4-------|
G||-------8--8--------8----|-------7--7--------7----|-------5--5--------5----|
D||------------------------|------------------------|------------------------|
A||------------------------|------------------------|------------------------|
E||--8---------------------|--6---------------------|--4---------------------|


   Ab7M                                               Gm    
|-------------------------|-------------------------|------------------------|
|----------------------4--|--------------4----------|-------------3--3-------|
|-------------5--5--------|--------5--------5-------|-------3--3--------3----|
|-------5--5--------5-----|-----5-----5--------5----|------------------------|
|-------------------------|-------------------------|------------------------|
|--4----------------------|--4----------------------|--3---------------------|


  F6                       Em6                                           
  
|------------------------|-------------0----------|----------------------|-------------0----------|
|-------------3--3-------|----------------3----2--|----------------------|----------------3----2--|
|-------2--2--------2----|-------0--0-------------|---------0------------|----------0-------------|
|------------------------|------------------------|---------------2------|-------2----------------|
|------------------------|------------------------|----------------------|------------------------|
|--1---------------------|--0---------------------|----------------------|--0---------------------|

 
                           REFRAIN 
                       
                          Am                         A/G                                            
                    
|-----------------------|--------------------------|----------------------|----------------------|
|-----------------------|-----------1------1----1--|-------2------2----2--|-------2------2----2--|
|----------0------------|-----------2------2----2--|-------2------2----2--|-------2------2----2--|
|-----2----------2------|--2--------2------2----2--|-------2------2----2--|-------2------2----2--|
|-----------------------|--0-----------------------|----------------------|----------------------|
|-----------------------|--------------------------|--3----3------3----3--|--3----3------3----3--|


  Dm                     D/C                                          Bb6
   
|-------1------1----1--|-------2------2----2--|-------2------2----2--|-------3------3--3----|
|-------3------3----3--|-------3------3----3--|-------3------3----3--|-------3------3--3----|
|-------2------2----2--|-------2------2----2--|-------2------2----2--|-------0------0--0----|
|--0----0------0----0--|----------------------|----------------------|--0----0------0--0----|
|----------------------|--3----3------3----3--|--3----3------3----3--|--1----1------1--1----|
|----------------------|----------------------|----------------------|----------------------|


                          G5                                            Em6
 
|-------3------3--3----|-------3------3--3----|-------3------3--3----|----------------------|
|-------3------3--3----|-------3------3--3----|-------3------3--3----|-------2------2----2--|
|-------0------0--0----|-------0------0--0----|-------0------0--0----|-------0------0----0--|
|--0----0------0--0----|-------0------0--0----|-------0------0--0----|-------2------2----2--|
|--1----1------1--1----|----------------------|----------------------|----------------------|
|----------------------|--3----3------3--3----|--3----3------3--3----|--0-------------------|


                                                                       Couplet 2

                         Em7                                           Même accords qu'au début
 
|----------------------|----------------------|----------------------||--------------6----------|
|-------2------2----2--|-------3------3----3--|-------3------3----3--||--------8--------8----8--|
|-------0------0----0--|-------0------0----0--|-------0------0----0--||-----8-----8-------------|
|-------2------2----2--|-------2------2----2--|-------2------2----2--||-------------------------|
|----------------------|----------------------|----------------------||-------------------------|
|----------------------|----------------------|----------------------||--8----------------------|


   
|--------------6---------|--------------3----------|--------3----------------|
|--------8--------8------|--------4-------------4--|-----4-----4-----4-------|
|-----7-----7------------|-----5-----5-------5-----|--------------5----------|
|------------------------|-------------------------|----------------------5--|
|------------------------|-------------------------|-------------------------|
|--6---------------------|--4----------------------|--4----------------------|


 
|--4--3-------------------|--------------1----------|--------------1----------|
|-----------4-------------|--------3--------3----3--|--------3--------3----2--|
|----------------5--------|-----------3-------------|-----------2-------------|
|--------5----------5-----|-----5-------------------|-----3-------------------|
|----------------------6--|-------------------------|-------------------------|
|-------------------------|--3----------------------|--1----------------------|


  
|---------------------0--|-----------------------|----------------------0--|----------------------|
|--------2---------------|-----3----2------------|--------2-------3--------|-----3----2-----------|
|----------------0-------|---------------0-------|-------------0-----0-----|---------------0------|
|-----2-------2----------|--------------------2--|-----2-------------------|----------------------|
|------------------------|-----------------------|-------------------------|----------------------|
|--0---------------------|-----------------------|--0----------------------|----------------------|



|--------6-----8---6-------|--------6-----8--6------|--------------3-----------|
|-----------8-----------8--|-----------8------------|--------4--------4-----4--|
|-----8--------------------|-----7------------------|-----5-----5--------5-----|
|--------------------------|------------------------|--------------------------|
|--------------------------|------------------------|--------------------------|
|--8-----------------------|--6---------------------|--4-----------------------|



|-----3--------------4--|-----3----------------|--------------1----------|--------------1----------|
|----------4------------|----------4-----------|--------3--------3----3--|--------3--------3-------|
|---------------5-------|---------------5------|-----------3-------------|-----------2----------0--|
|-----------------------|----------------------|-----5-------------------|-----3-------------------|
|-----------------------|----------------------|-------------------------|-------------------------|
|-----------------------|----------------------|--3----------------------|--1----------------------|



|--------------0----------|-------------------------|-------------------------|
|--------2--------3----2--|-------------------------|-------------------------|
|-------------------------|-----0----------------0--|-----------0----0-----0--|
|-----2-----2-------------|----------2-----2--------|-----2-------------2-----|
|-------------------------|-------------------------|-------------------------|
|--0----------------------|-------------0-----0-----|--------0----------------|


  
|--------------------0--||
|-----0----2----3-------||
|-----------------------||
|--2--------------------||
|-----------------------||
|-----------------------||
    
    

0 Commentaires : réagissez !

1 2 3 4 5
0 notes
Aucun commentaire !

En Live

Opsi01 vient tout juste de rejoindre la communauté Sweepyto. Bienvenue ! il y a 6 jours
Mamad12 vient tout juste de rejoindre la communauté Sweepyto. Bienvenue ! il y a 6 jours
Jem77v vient tout juste de rejoindre la communauté Sweepyto. Bienvenue ! il y a 1 semaine
MacFly44700 vient tout juste de rejoindre la communauté Sweepyto. Bienvenue ! il y a 1 semaine
Shambhujiii40 vient tout juste de rejoindre la communauté Sweepyto. Bienvenue ! il y a 2 semaines
Le G a commenté le topic [Le bar est ouvert] de Poppy il y a 2 semaines
Nath67 vient tout juste de rejoindre la communauté Sweepyto. Bienvenue ! il y a 2 semaines
Ventripotent vient tout juste de rejoindre la communauté Sweepyto. Bienvenue ! il y a 4 semaines