ConnexionConnexionInscription
E A D G B E
122 connectés Aller à Slappyto Basse
Thomann Thomann

Claude Debussy - Clair de Lune [ Artiste ]

Publié par le
21/12/2010
14355 vues
Moyen 1
http://www.deezer.com/listen-4540396
    
        

Première partie


E||--------5----------------|-----0--2--0------------|--------0------2-----------|
B||--------7---------7------|-----2--3--2------------|-----3--2--3-----------3---|
G||------------------7------|--3---------------------|--2--4-----4---------------|
D||-----7-------------------|--5---------------------|--4------------------------|
A||-----9-------------------|------------------------|---------------------------|
E||-------------------------|------------------------|---------------------------|


      
|------------------------|-----------------------------|-------------------------|
|-----2--3--2------------|-----0--2--0--5--0-----------|-------------------------|
|--0--2--4--2------------|--0-----------------2--4--2--|--------2---------3------|
|--2---------------------|--2-----------------5--------|--0--5-----5------4------|
|------------------------|--5-----------------4--------|--2---------------4------|
|------------------------|-----------------------------|--0---------------0------|


 
|-----------------------------|--------------------------|-----------3------2------|
|-----------------------------|--------------------------|-------------------------|
|--------------4--------------|--------------------------|--------2--2-------------|
|--0--4--5--4-----4--2--4--2--|--------2---------2-------|--0--4--4--4-------------|
|--0--------------------------|--0--5-----5------4-------|-------------------------|
|--7-----------------3--------|--2---------------3---5---|-------------------------|



|-----0--2--0------------|--------0--5------2------|-----0--2----------------|
|-----0------------------|-----3-----3------3------|-----3-----5------3------|
|-----7------------------|-----2-----2------2------|-----4-------------------|
|--0---------------------|--0--4------------4------|--0--5-------------------|
|------------------------|-------------------------|-------------------------|
|--3---------------------|--2----------------------|--3----------------------|


      
|-----------7---5-------2---|--------2------------------|-----------------------|
|--3--3--5--0---------------|-----5-----5---3-------0---|-----------------------|
|-----2-----7---2-----------|-----4---------------------|-----------------------|
|-----4-----5-----------4---|-----4---------------------|-----------------------|
|--0-----7------------------|--2------------------------|-----------------------|
|---------------------------|---------------------------|-----------------------|


  Fin                                                                 
           
    
|--5------------5------|--5------------5------|--5-------------------||
|--3------------0------|--5------------5------|--7-------------------||
|--2------------2------|--7------------2------|----------------------||
|--4------------3------|--7------------5------|----------------------||
|----------------------|--7------------0------|--5-------------------||
|----------------------|----------------------|----------------------||

    
    

0 Commentaires : réagissez !

1 2 3 4 5
0 notes
Aucun commentaire !

En Live

Vrock81 et 36seb ont commenté le topic [Association de mots] de Arnold Layne il y a 2 heures
Vrock81 a voté pour le message de 36seb il y a 2 heures