ConnexionConnexionInscription
E A D G B E
118 connectés Aller à Slappyto Basse
Thomann Thomann

John Coltrane - Naïma [ Artiste ]

Publié par le
21/12/2010
3201 vues
Avancé 1
http://www.deezer.com/listen-679499
    
        

Arrangement pour guitare



      Eb13sus4                   Ebm9                Eb7sus4b5 Eb7(5+9#)           
                   |---3---|                                            |--3--|   
         
E||---8-------------------11--|-------------------|--4---------2--------------2--|
B||---9---------------11------|--6----------------|--4---------2-----------4-----|
G||---6-----------------------|--6----------------|--6---------4-----------------|
D||--10-----------------------|--4----------------|--7---------5-----------------|
A||---------------------------|--6----------------|------------------------------|
E||---------------------------|-------------------|------------------------------|


  Eb6add4                                                                 
                                     |--3--|                  |--3--|   
   
|--3-----------------||--6---------------6--6--|--3---------------------|
|--4-----------------||--7---------------------|--3---------------4--6--|
|--5----------------*||--8---------------------|--4---------------------|
|--6----------------*||--8---------------------|--6---------------------|
|--------------------||------------------------|------------------------|
|--------------------||------------------------|------------------------|


  |----3----|         |--3--|                  |--3--|                   |---3--|   
  
|--6----6----6----6-------6--6--|--3---------------------|---9-------------------9--|
|--7----7----7----7-------------|--3---------------6--4--|---9---------------11-----|
|--8----8----8----8-------------|--4---------------------|--11----------------------|
|--8----8----8----8-------------|--6---------------------|--12----------------------|
|-------------------------------|------------------------|--------------------------|
|-------------------------------|------------------------|--------------------------|


               |--3--|                  |--3--|                        
                 
|--6------------------6--|--3------------------3--|-------------------||
|--6---------------7-----|--4---------------4-----|--4----------------||
|--8---------------------|--5---------------------|--3----------------||
|--9---------------------|--6---------------------|--2----------------||
|------------------------|------------------------|-------------------||
|------------------------|------------------------|-------------------||
    
    

0 Commentaires : réagissez !

1 2 3 4 5
0 notes
Aucun commentaire !

En Live

Jl.menanteau vient tout juste de rejoindre la communauté Sweepyto. Bienvenue ! il y a 3 jours
Tszav vient tout juste de rejoindre la communauté Sweepyto. Bienvenue ! il y a 1 semaine
Epic a commenté le topic [Covers guitare] de raphu0403 il y a 2 semaines
FreeBird et pascal'son ont commenté le topic [Le bar est ouvert] de Poppy il y a 2 semaines
ZozoTheBassist a commenté le wall de Fred_Tana il y a 2 semaines
ZozoTheBassist a accepté le message de Fred_Tana il y a 2 semaines
Fred_Tana a commenté le wall de ZozoTheBassist il y a 3 semaines
Myre63 vient tout juste de rejoindre la communauté Sweepyto. Bienvenue ! il y a 3 semaines