ConnexionConnexionInscription
E A D G B E
121 connectés Aller à Slappyto Basse
Thomann Thomann

Coldplay - Trouble [ Artiste ]

Publié par le
21/12/2010
5615 vues
Moyen 1
http://www.deezer.com/listen-3128097
    
        

Piano

               G               Em               Bm
       
E||--2-3-2---|---------2-3-2----------2-3-2---|-----------------5-3-2---|
B||--------3-|-------0-------3------0-------3-|--3--------L---3-------3-|
G||----------|-----0-----------0--0-----------|--4--------L-------------|
D||----------|--0--------------2--------------|--4--------L-------------|
A||----------|--2--------------2--------------|--2--------L-------------|
E||----------|--3--------------0--------------|-------------------------|


                                                             G        Em          Bm
        
|---------2-3-2----------2-3-2---|-----------------2-3-2---|--3--------0--------|--2----------------|
|-------0-------3------0-------3-|--3--------------------3-|--0--------0--------|--3----------------|
|-----0-----------0--0-----------|--4----------------------|--0--------0--------|--4----------------|
|--0--------------2--------------|--4----------------------|--0--------2--------|--4----------------|
|--2--------------2--------------|--2----------------------|--2--------2--------|--2----------------|
|--3--------------0--------------|-------------------------|--3--------0--------|-------------------|


  F        Am          G           Em          Bm                  F        Am

|--1--------0--------|--3--------3-----------|-------------------|--1--------0--------|
|--1--------1--------|--0----L-0----0--------|--3----------------|--1--------1--------|
|--2--------2--------|--0----L------0--------|--4----------------|--2--------2--------|
|--3--------2--------|--0----L------2--------|--4----------------|--3--------2--------|
|--3--------0--------|--2----L------2--------|--2----------------|--3--------0--------|
|--1-----------------|--3----L------0--------|-------------------|--1-----------------|


  G                     Refrain   A                     Em

|--3------------2-3-2---|--0--0-0-0--0-0-0-0-0--0--0-0-|--0--0-0-0--0-0-0-0-0--0--0-0-|
|--0------------------3-|--2--2-2-2--2-2-2-2-2--2--2-2-|--0--0-0-0--0-0-0-0-0--0--0-0-|
|--0--------------------|--2--2-2-2--2-2-2-2-2--2--2-2-|--0--0-0-0--0-0-0-0-0--0--0-0-|
|--0--------------------|--2--2-2-2--2-2-2-2-2--2--2-2-|--2--2-2-2--2-2-2-2-2--2--2-2-|
|--2--------------------|--0--0-0-0--0-0-0-0-0--0--0-0-|--2--2-2-2--2-2-2-2-2--2--2-2-|
|--3--------------------|------------------------------|--0--0-0-0--0-0-0-0-0--0--0-0-|


  A                              Em                             A

|--0--0-0-0--0-0-0-0-0--0--0-0-|--0--0-0-0--0-0-0-0-0--0--0-0-|--0--0-0-0--0-0-0-0-0--0--0-0-|
|--2--2-2-2--2-2-2-2-2--2--2-2-|--0--0-0-0--0-0-0-0-0--0--0-0-|--2--2-2-2--2-2-2-2-2--2--2-2-|
|--2--2-2-2--2-2-2-2-2--2--2-2-|--0--0-0-0--0-0-0-0-0--0--0-0-|--2--2-2-2--2-2-2-2-2--2--2-2-|
|--2--2-2-2--2-2-2-2-2--2--2-2-|--2--2-2-2--2-2-2-2-2--2--2-2-|--2--2-2-2--2-2-2-2-2--2--2-2-|
|--0--0-0-0--0-0-0-0-0--0--0-0-|--2--2-2-2--2-2-2-2-2--2--2-2-|--0--0-0-0--0-0-0-0-0--0--0-0-|
|------------------------------|--0--0-0-0--0-0-0-0-0--0--0-0-|------------------------------|


  Em                             A                              Em

|--0--0-0-0--0-0-0-0-0--0--0-0-|--0--0-0-0--0-0-0-0-0--0--0-0-|--0------------2-3-2---|
|--0--0-0-0--0-0-0-0-0--0--0-0-|--2--2-2-2--2-2-2-2-2--2--2-2-|--0------------------3-|
|--0--0-0-0--0-0-0-0-0--0--0-0-|--2--2-2-2--2-2-2-2-2--2--2-2-|--0--------------------|
|--2--2-2-2--2-2-2-2-2--2--2-2-|--2--2-2-2--2-2-2-2-2--2--2-2-|--2--------------------|
|--2--2-2-2--2-2-2-2-2--2--2-2-|--0--0-0-0--0-0-0-0-0--0--0-0-|--2--------------------|
|--0--0-0-0--0-0-0-0-0--0--0-0-|------------------------------|--0--------------------|


Pont
  Em       F#m         G        F#m

|--0--------2--------|--3-----------------|--0--------2--------|--3-----------------|
|--0--------2--------|--0--------2--------|--0--------2--------|--0--------2--------|
|--0--------2--------|--0--------2--------|--0--------2--------|--0--------2--------|
|--2--------4--------|--0--------4--------|--2--------4--------|--0--------4--------|
|--2--------4--------|--2--------4--------|--2--------4--------|--2--------4--------|
|--0--------2--------|--3--------2--------|--0--------2--------|--3--------2--------|



|--0--------2--------|--3-----------------|--0-----------------|----------------------|
|--0--------2--------|--0--------2--------|--0-----------------|----------------------|
|--0--------2--------|--0--------2--------|--0-----------------|----------------------|
|--2--------4--------|--0--------4--------|--2--------2--------|--2----2----2----2----|
|--2--------4--------|--2--------4--------|--2-----------------|----------------------|
|--0--------2--------|--3--------2--------|--0-----------------|----------------------|


Outro

  G                Em            Bm                             

|--3--3-3-3--3-3-0--0-0-0--0-0-|--2--2-2-2--2-2-2-2-2--2--2-2-|--3--3-3-3--3-3-0--0-0-0--0-0-|
|--0--0-0-0--0-0-0--0-0-0--0-0-|--3--3-3-3--3-3-3-3-3--3--3-3-|--0--0-0-0--0-0-0--0-0-0--0-0-|
|--0--0-0-0--0-0-0--0-0-0--0-0-|--4--4-4-4--4-4-4-4-4--4--4-4-|--0--0-0-0--0-0-0--0-0-0--0-0-|
|--0--0-0-0--0-0-2--2-2-2--2-2-|--4--4-4-4--4-4-4-4-4--4--4-4-|--0--0-0-0--0-0-2--2-2-2--2-2-|
|--2--2-2-2--2-2-2--2-2-2--2-2-|--2--2-2-2--2-2-2-2-2--2--2-2-|--2--2-2-2--2-2-2--2-2-2--2-2-|
|--3--3-3-3--3-3-0--0-0-0--0-0-|------------------------------|--3--3-3-3--3-3-0--0-0-0--0-0-|



|--2--2-2-2--2-2-2-2-2--2--2-2-|--3--3-3-3--3-3-0--0-0-0--0-0-|--2--2-2-2--2-2-2-2-2--2--2-2-|
|--3--3-3-3--3-3-3-3-3--3--3-3-|--0--0-0-0--0-0-0--0-0-0--0-0-|--3--3-3-3--3-3-3-3-3--3--3-3-|
|--4--4-4-4--4-4-4-4-4--4--4-4-|--0--0-0-0--0-0-0--0-0-0--0-0-|--4--4-4-4--4-4-4-4-4--4--4-4-|
|--4--4-4-4--4-4-4-4-4--4--4-4-|--0--0-0-0--0-0-2--2-2-2--2-2-|--4--4-4-4--4-4-4-4-4--4--4-4-|
|--2--2-2-2--2-2-2-2-2--2--2-2-|--2--2-2-2--2-2-2--2-2-2--2-2-|--2--2-2-2--2-2-2-2-2--2--2-2-|
|------------------------------|--3--3-3-3--3-3-0--0-0-0--0-0-|------------------------------|


                                                                      
                              
|--3--3-3-3--3-3-0--0-0-0--0-0-|--2----------------||
|--0--0-0-0--0-0-0--0-0-0--0-0-|--3----------------||
|--0--0-0-0--0-0-0--0-0-0--0-0-|--4----------------||
|--0--0-0-0--0-0-2--2-2-2--2-2-|--4----------------||
|--2--2-2-2--2-2-2--2-2-2--2-2-|--2----------------||
|------------------------------|-------------------||

    
    

5 Commentaires

1 2 3 4 5
1 note
Notes pour Trouble Guitare Tab - (Coldplay) | Sweepyto : 5/5 sur 1 note
#5
08/07/2011 23:01:34
De rien 
0
0
#4
05/07/2011 11:56:59

Merci beaucoup Fred je viens de faire la correction j'avais pas fais attention.  

0
0
#3
05/07/2011 11:47:15
Très bon morceau. 

Par contre je crois que tu tes planté à la fin.
Tout en bas (à la fin de l'outro), il manque une corde (j'en vois 5).
C'est pas grave on peut facilement deviner sur qu'elle casse on dois ce placer (c'est un peut les même accord tout le long de la chanson).

Tout le monde fait des erreurs (même les meilleur) 
0
0
#2
23/05/2011 21:40:02
Ce sont les durees. J ai oublié de les enlever.
0
0
#1
23/05/2011 21:33:39
bonjour ! j'aimerais savoir se que signifie les différentes lettres au dessus de la tablature ? ( par les accords mais les autres ) je connaissais les H (haut) et les B (bas) mais la les E S W Q ?
0
0

En Live

Tszav vient tout juste de rejoindre la communauté Sweepyto. Bienvenue ! il y a 21 heures
Epic a commenté le topic [Covers guitare] de raphu0403 il y a 1 semaine
FreeBird et pascal'son ont commenté le topic [Le bar est ouvert] de Poppy il y a 1 semaine
ZozoTheBassist a commenté le wall de Fred_Tana il y a 1 semaine
ZozoTheBassist a accepté le message de Fred_Tana il y a 1 semaine
Fred_Tana a commenté le wall de ZozoTheBassist il y a 1 semaine
Myre63 vient tout juste de rejoindre la communauté Sweepyto. Bienvenue ! il y a 1 semaine