ConnexionConnexionInscription
E A D G B E
114 connectés Aller à Slappyto Basse
Thomann Thomann

Nirvana - Smells like teen spirit [ Artiste ]

Publié par le
22/11/2010
52736 vues
Débutant 3
http://www.deezer.com/listen-1126778
    
        

    F5               Bb5           Ab5              Db5          etc.  
   
E|------------------------------|------------------------------|------------------------------|
B|------------------------------|------------------------------|------------------------------|
G|-------------------3--3-3-0-0-|-------------------6--6-6-x-0-|-------------------3--3-3-0-0-|
D|--3---3-3----x-x-x-3--3-3-0-0-|--6---6-6--x-x-x-x-6--6-6-x-0-|--3---3-3--x-x-x-x-3--3-3-0-0-|
A|--3---3-3----x-x-x-1--1-1-----|--6---6-6--x-x-x-x-4--4-4-x---|--3---3-3--x-x-x-x-1--1-1-----|
E|--1---1-1----x-x-x------------|--4---4-4--x-x-x-x------------|--1---1-1--x-x-x-x------------|


                  w/ dist                                                                       
  
|---------------------------------|------------------------------|------------------------------|
|---------------------------------|------------------------------|------------------------------|
|------------------6-------6-6----|-------------------3--3-3-0-0-|-------------------6--6-6-x-0-|
|--6---6-6--x-x-x--6-------6-6----|--3---3-3----x-x-x-3--3-3-0-0-|--6---6-6--x-x-x-x-6--6-6-x-0-|
|--6---6-6--x-x-x--4-------4-4----|--3---3-3----x-x-x-1--1-1-----|--6---6-6--x-x-x-x-4--4-4-x---|
|--4---4-4--x-x-x-----------------|--1---3-1----x-x-x------------|--4---4-4--x-x-x-x------------|


 
|------------------------------|------------------------------|------------------------------|
|------------------------------|------------------------------|------------------------------|
|-------------------3--3-3-0-0-|------------------6-6-6-6-x-0-|-------------------3--3-3-0-0-|
|--3---3-3--x-x-x-x-3--3-3-0-0-|--6---6-6--x-x-x--6-6-6-6-x-0-|--3---3-3----x-x-x-3--3-3-0-0-|
|--3---3-3--x-x-x-x-1--1-1-----|--6---6-6--x-x-x--4-4-4-4-x---|--3---3-3----x-x-x-1--1-1-----|
|--1---1-1--x-x-x-x------------|--4---4-4--x-x-x--------------|--1---3-1----x-x-x------------|



|------------------------------|------------------------------|------------------------------|
|------------------------------|------------------------------|------------------------------|
|-------------------6--6-6-x-0-|-------------------3--3-3-0-0-|------------------6-6-6-6-6-6-|
|--6---6-6--x-x-x-x-6--6-6-x-0-|--3---3-3--x-x-x-x-3--3-3-0-0-|--6---6-6--x-x-x--6-6-6-6-6-6-|
|--6---6-6--x-x-x-x-4--4-4-x---|--3---3-3--x-x-x-x-1--1-1-----|--6---6-6--x-x-x--4-4-4-4-4-4-|
|--4---4-4--x-x-x-x------------|--1---1-1--x-x-x-x------------|--4---4-4--x-x-x--------------|


  w/ clean & chorus                                                                                
                                                                                                  3x
||----------------------------------|-------------------|----------------------|-------------------||
||-----------------------6----------|-------------------|----------6-----------|-------------------||
||°-------------------5-------------|-------------------|-------5--------------|------------------°||
||----------------------------------|-------------------|----------------------|-------------------||
||°---------------------------------|-------------------|----------------------|------------------°||
||----------------------------------|-------------------|----------------------|-------------------||



                                                                                            2x
||----------------------|----------------------|----------------------|----------------------||
||-------6---------6----|-------6---------6----|-------6---------6----|-------6---------6----||
||°-5---------5---------|--5---------5---------|--5---------5---------|--5---------5--------°||
||----------------------|----------------------|----------------------|----------------------||
||°---------------------|----------------------|----------------------|---------------------°||
||----------------------|----------------------|----------------------|----------------------||


Refrain
  
w/ dist                                                                                        
                                                                   6x
||----------------------------------|-------------------------------||
||----------------------------------|-------------------------------||
||°----------------------3--3-3-0-0-|-------------------6--6-6-x-0-°||
||--3-------3-3----x-x-x-3--3-3-0-0-|--6---6-6--x-x-x-x-6--6-6-x-0--||
||°-3-------3-3----x-x-x-1--1-1-----|--6---6-6--x-x-x-x-4--4-4-x---°||
||--1-------1-1----x-x-x------------|--4---4-4--x-x-x-x-------------||


   F5   E5 F5 F#5           F5   E5 F5 Bb5    Ab5    etc. 
                     1t                                                  1t
|-------------------------|-------------------------|-------------------------|
|-------------------------|-------------------------|-------------------------|
|-------------------3{----|-------------------------|-------------------3{----|
|--3----2--3--4--4--------|--3----2--3--8--8--6--6--|--3----2--3--4--4--------|
|--3----2--3--4--4--------|--3----2--3--8--8--6--6--|--3----2--3--4--4--------|
|--1----0--1--2--2--------|--1----0--1--6--6--4--4--|--1----0--1--2--2--------|


         
|-------------------------|
|-------------------------|
|-------------------------|
|--3----2--3--8--8--6--6--|
|--3----2--3--8--8--6--6--|
|--1----0--1--6--6--4--4--|


COUPLET 2

REFRAIN 2

SOLO :

                        1t                                                  1t
||------------------------------------|-------------------------|---------------------------||
||------------------------------------|-------------------------|---------------------------||
||°-5--8--10\------8--8b----8--6--5~~-|-------6--5-----3----1~~-|-------3--3b----rb--1--0--°||
||------------6~~---------------------|-------------------------|---------------------------||
||°-----------------------------------|-------------------------|--------------------------°||
||------------------------------------|-------------------------|---------------------------||


                                                                                  3x
|--------------------------||--------------------------|---------------------------||
|--------------------------||--------------------------|---------------------------||
|--1-0----1-0----1-0---1-0-||°--1-0---1--0---1--0--1-0-|---1-0---1--0----1-0---1-0°||
|--------------------------||-3------------------------|-3-------------------------||
|--------------------------||°-------------------------|--------------------------°||
|--------------------------||--------------------------|---------------------------||


               
|--------------------|
|--------------------|
|--------------------|
|--3-----------------|
|--------------------|
|--------------------|


             
Couplet 3

Refrain 3 jusqu'à la fin

    
    

2 Commentaires

1 2 3 4 5
2 notes
Notes pour Smells Like Teen Spirit Guitare Tab - (Nirvana) | Sweepyto : 5/5 sur 2 notes
#2
20/12/2011 11:54:11

Et encore Kurt déborde un peu son accords avec une version à 4 notes du genre :

 

X

X

3

3

3

1

0
0
#1
20/12/2011 11:08:42
Bonne version! C'est vrai que les power chords avec trois notes amène un plus par rapport à la version avec deux doigts :-)
0
0

En Live

Guitariste 13 et Thibault_M ont commenté le topic [Vox ad15 VT] de Guitariste 13 il y a 1 jour
Guitariste 13 a commenté la tablature de turbo il y a 1 jour
Guitariste 13 a voté pour la tablature de turbo il y a 1 jour
Guitariste 13 vient tout juste de rejoindre la communauté Sweepyto. Bienvenue ! il y a 2 jours
Serpot vient tout juste de rejoindre la communauté Sweepyto. Bienvenue ! il y a 4 jours
Herick vient tout juste de rejoindre la communauté Sweepyto. Bienvenue ! il y a 1 semaine
Riton91 vient tout juste de rejoindre la communauté Sweepyto. Bienvenue ! il y a 1 semaine
Romanol vient tout juste de rejoindre la communauté Sweepyto. Bienvenue ! il y a 2 semaines
WeeDusty vient tout juste de rejoindre la communauté Sweepyto. Bienvenue ! il y a 2 semaines