ConnexionConnexionInscription
E A D G B E
148 connectés Aller à Slappyto Basse
Thomann Thomann

Guns N' Roses - Knocking on Heaven's Door Solo 1 [ Artiste ]

Publié par le
22/11/2010
30813 vues
Moyen 1
http://www.deezer.com/listen-882260
    
        

SOLO 1

  G5                       D5                 C5                       
                                                              
            1t                   1t                            sl.
|-------------------------------------------|--------------------------|
|--------------------------15---------------|--------------------------|
|-----12--14brb---12-14--------14brb--12-12-|---~~~~~~-------------12--|
|-------------------------------------------|----------------13/14-----|
|-------------------------------------------|--------------------------|
|-------------------------------------------|--------------------------|


   G5                  D5                   C5                                
                         1t                    
|----------------------------------------|------------------------------15----|
|---15/17-15-----13p12-13b---------13p12-|--13---p12--------------12-13----13-|
|----------------------------------------|------------------------------------|
|----------------------------------------|-----------14~~~~~------------------|
|----------------------------------------|------------------------------------|
|----------------------------------------|------------------------------------|


   G5                    D5                      C5            
              
           sl.        1t          1t     1t                         1t
|----------------15-17b--17-----17b-----17b--|--15~~~~~~----------20b--|
|--12~-----15/17-----------------------------|-------------------------|
|--------------------------------------------|-------------------------|
|--------------------------------------------|-------------------------|
|--------------------------------------------|-------------------------|
|--------------------------------------------|-------------------------|


  G5                   D5     
              
                      1t                             1t 1t  1t 1t
|------20p19-20--19-20b----20----20--20-----|-------------------------------|
|-----------------------------18--------17~~|------15brbbrb-----------------|
|-------------------------------------------|--------------14brbbrb-12-12~~~|
|-------------------------------------------|-------------------------------|
|-------------------------------------------|-------------------------------|
|-------------------------------------------|-------------------------------|

    
    

4 Commentaires

1 2 3 4 5
3 notes
Notes pour Knocking On Heaven's Door Solo 1 Guitare Tab - (Guns N' Roses) | Sweepyto : 3/5 sur 3 notes
#4
26/05/2011 22:45:48

Vois avec la team du forum j 'ai pas trop le temps de te répondre tout de suite désolé  

 

Francky

0
0
#3
26/05/2011 22:27:37
Salut Poppy,

j'aimerais savoir, étant un gratteux de niveaux moyen (même si je trouve ce solo hyper simple), aurais-tu d'autres solo dans le même genre que celui-ci, car j'aimerais bien m'améliorer en solo, mais je ne sais pas quoi apprendre...... Donc si tu pouvais me faire un petit "planning" avec quelques solos à apprendre les uns après les autres ce serait vraiment génial.

Merci

PS: Je suis désolé si j'en demande trop, mais le site manque cruellement de solos....
0
+2
#2
17/12/2010 16:14:53

 

Retirer
LAKESSE
bonjour à tous, je suis débutant et je ne comptrends pas sur la tablature les lettres et chiffres écrits en bleu, ainsi que ceux en rouge sur knocking on heaven's door......j'ai une tablature d'un autre titre où il n'y a aucune lettre en bleu au-dessus, ni de lettres rouges miniscule ou majuscule....ça veut dire quoi ? merci
 

 

b= bend
rb=reverse bend
p=pull off
L=liaison
S=Slide
 
0
0
#1
08/12/2010 18:09:34
bonjour à tous, je suis débutant et je ne comptrends pas sur la tablature les lettres et chiffres écrits en bleu, ainsi que ceux en rouge sur knocking on heaven's door......j'ai une tablature d'un autre titre où il n'y a aucune lettre en bleu au-dessus, ni de lettres rouges miniscule ou majuscule....ça veut dire quoi ? merci
0
0

En Live

Opsi01 vient tout juste de rejoindre la communauté Sweepyto. Bienvenue ! il y a 9 heures
Mamad12 vient tout juste de rejoindre la communauté Sweepyto. Bienvenue ! il y a 17 heures
Jem77v vient tout juste de rejoindre la communauté Sweepyto. Bienvenue ! il y a 2 jours
MacFly44700 vient tout juste de rejoindre la communauté Sweepyto. Bienvenue ! il y a 4 jours
Shambhujiii40 vient tout juste de rejoindre la communauté Sweepyto. Bienvenue ! il y a 1 semaine
Le G a commenté le topic [Le bar est ouvert] de Poppy il y a 2 semaines
Nath67 vient tout juste de rejoindre la communauté Sweepyto. Bienvenue ! il y a 2 semaines
Ventripotent vient tout juste de rejoindre la communauté Sweepyto. Bienvenue ! il y a 3 semaines