ConnexionConnexionInscription
E A D G B E
147 connectés Aller à Slappyto Basse
Thomann Thomann

Dire Straits - Sultans of swing - solo 1 & 2 [ Artiste ]

Publié par le
22/11/2010
35459 vues
Avancé 1
http://www.deezer.com/listen-885514
    
        

SOLO 1

                                          |-------3------|                                    
  
e||-------------------------|-------------------------------------|-----------------------------|
B||-------------------------|--8b-----------------8g8b----9g8b----|--8br------6h-8p-6------5h-6-|
G||-------------5-----------|-------------------------------------|-----------------------------|
D||-------5--7--------------|-------------------------------------|-----------------------------|
A||--5S-7-------------------|-------------------------------------|-----------------------------|
E||-------------------------|-------------------------------------|-----------------------------|


                             |--3--|                               |--3--|                       
   
|--------------------------|---------------9--12br--------------|--10----------------------------|
|--5-----------------------|-------10---------------------------|--------10------------------10--|
|--------------------------|--9---------------------------------|----------------10--------------|
|----------------------11--|------------------------------------|--------------------12----------|
|-------------------x------|------------------------------------|--------------------------------|
|---------------x----------|------------------------------------|--------------------------------|


    
|-----------------------------|-----------------------------|-----------------------------|
|--13------11h-13p-11------9--|--10-----------11-----x---x--|--9--10----10------10--------|
|-----------------------------|------------x----------------|------0-----0-------0--------|
|-----------------------------|-----------------------------|-----------------------x--x--|
|-----------------------------|-----------------------------|-----------------------------|
|-----------------------------|-----------------------------|-----------------------------|


        
|--------------------13--------------|--------------------------|
|---------13-------------13----------|--------------------------|
|--12b----------12b------------12br--|------10----10------------|
|------------------------------------|--------------------------|
|------------------------------------|--------------------------|
|------------------------------------|--------------------------|


                                                           
    
|--12g13-----12------------------------|-----------------------------|
|-------------------13-----------------|--13----13----13-------------|
|-----------------------12--14p----12--|-----------------------------|
|--------------------------------------|-----------------------------|
|--------------------------------------|-----------------------------|
|--------------------------------------|-----------------------------|


  
|---------------------------------|------------------------------|
|--13b----------13b----------13b--|------13br----------------10--|
|------------------------15-------|------------------------------|
|---------------------------------|------------------------------|
|---------------------------------|------------------------------|
|---------------------------------|------------------------------|



 
|--13p--10------10------------------|------------------------------|------------------------------|
|--10-------10------13b------x--10--|---------------------3--6--3--|---------5--6--8-----6-----5--|
|-----------------------------------|--12--10S-3-------3-----------|-------5----------------------|
|-----------------------------------|---------------3--------------|-----5------------------------|
|-----------------------------------|------------------------------|------------------------------|
|-----------------------------------|------------------------------|------------------------------|


   
|-----------------------------|--------------------------|-------------------------------|
|--6S--8S-3----------3--6--3--|--3S--5-------------------|---------8---------------------|
|-----------------3-----------|--3S--5-----5-----7----5--|--7b--------7br-----5--7~--7~--|
|--------------3--------------|--3S--5--5----------------|-------------------------------|
|-----------------------------|--------------------------|-------------------------------|
|-----------------------------|--------------------------|-------------------------------|



SOLO 2



 
||---------------------------|--------------------------|------------------------------------------|
||--8b------------8----6--8--|--6------------------8br--|---------8----5h-8p-5----3h-5p-3----------|
||---------------------------|-----7--------------------|------------------------------------5h-7h-|
||---------------------------|--------------------------|------------------------------------------|
||---------------------------|--------------------------|------------------------------------------|
||---------------------------|--------------------------|------------------------------------------|


   
|---------------------------------|---------------------------------|-------------------------|
|---------------------------------|-------------x-10p-8----8--------|-------------------------|
|--5----5---5---------------------|-----------x---------10---10--7--|----------7--7------7S-9-|
|-------5-7-5---------------------|---------------------------------|-------------------------|
|----------------5-7-5------------|---------------------------------|-------------------------|
|---------------------------------|---------------------------------|-------------------------|


   
|-------------8----------8----------8----------|--8----------8-------------------|
|--8h-10p-8---8h-10p-8---8h-10p-8---8h-10p-8---|--8h-10p-8---8-10-8--------------|
|-----------9----------9----------9----------9-|-----------9---------x--x--x-----|
|----------------------------------------------|------------------0--x--x--x-----|
|----------------------------------------------|---------------------------------|
|----------------------------------------------|---------------------------------|


  
|----------10----------------------------------------|---------------------------|
|-------10----13p-10----10------------------------10-|---------------------------|
|--12b---------------12----12p-10--------------10----|--12---------------------x-|
|---------------------------------12----10h-12-------|----------------------x----|
|----------------------------------------------------|---------------------------|
|----------------------------------------------------|---------------------------|


   
|---------------------------------|---------12------------10---x---x--|
|--10---------------11-----x---x--|--11b--------11br--11--------------|
|--------0--------x---------------|-----------------------------------|
|--------------x------------------|-----------------------------------|
|---------------------------------|-----------------------------------|
|---------------------------------|-----------------------------------|


 
|--13p-10----10-13p-10----10-13p-10----10-13p-10----10-|
|---------10-----------10-----------10-----------10----|
|------------------------------------------------------|
|------------------------------------------------------|
|------------------------------------------------------|
|------------------------------------------------------|


 
|--13p-10----10-13p-10----10-13p-10----10-13--------x-|
|---------11-----------11-----------11-----------x----|
|-----------------------------------------------------|
|-----------------------------------------------------|
|-----------------------------------------------------|
|-----------------------------------------------------|


   
|--15p-12----12-15p-12----12-15p-12----12-15p-12----12-|
|---------13-----------13-----------13-----------13----|
|------------------------------------------------------|
|------------------------------------------------------|
|------------------------------------------------------|
|------------------------------------------------------|


    
|--15p-12----12-15p-12----12-15p-12----12-15-------10-|
|---------13-----------13-----------13----------10----|
|-----------------------------------------------------|
|-----------------------------------------------------|
|-----------------------------------------------------|
|-----------------------------------------------------|


  
|--13p-10----10-13p-10----10-13p-10----10-13p-10----10-|
|---------10-----------10-----------10-----------10----|
|------------------------------------------------------|
|------------------------------------------------------|
|------------------------------------------------------|
|------------------------------------------------------|


   
|--13p-10----10-13p-10----10-13p-10----10-13--------x-|
|---------11-----------11-----------11-----------x----|
|-----------------------------------------------------|
|-----------------------------------------------------|
|-----------------------------------------------------|
|-----------------------------------------------------|


 
|--15p-12----12-15p-12----12-15p-12----12-15p-12----12-|
|---------13-----------13-----------13-----------13----|
|------------------------------------------------------|
|------------------------------------------------------|
|------------------------------------------------------|
|------------------------------------------------------|


  
|--15p-12----12-15p-12----12-15p-12----12-15-12-------|--15b---------15br------13--15--|
|---------13-----------13-----------13----------12----|--------------------------------|
|-----------------------------------------------------|--------------------------------|
|-----------------------------------------------------|--------------------------------|
|-----------------------------------------------------|--------------------------------|
|-----------------------------------------------------|--------------------------------|


 
|--13--------------13------15b--|----------------12h-15p-12------------------------|
|------15--------------13-------|------------------------------13h-15p-13--10h-13h-|
|-------------------------------|--------------------------------------------------|
|-------------------------------|--------------------------------------------------|
|-------------------------------|--------------------------------------------------|
|-------------------------------|--------------------------------------------------|


  
|---------------------------------|-----------------------|-----------------------|
|--10-----------------------------|-----------6--5-----3--|---------------6-------|
|--------9-12-9-------------------|-----------7--5-----3--|---------------5-------|
|---------------------------------|-----------7--5-----3--|---------------7-------|
|------------------15S-7----------|-----------------------|-----------------------|
|---------------------------------|-----------------------|-----------------------|


  
|---------------------------|---------------------------|-------------------------|
|--6--5--x--5---------------|--10----8-8-8--8-----------|-----------6--5-------3--|
|--5-----x--5-------5S---10-|--10-----------9-----------|-----------7--5-------3--|
|--7--5--x--5---------------|---------------------------|-----------7--5-------3--|
|---------------------------|---------------------------|-------------------------|
|---------------------------|---------------------------|-------------------------|


        
|-----------------------|-----||
|---------------6-------|-----||
|---------------5-------|-----||
|---------------7-------|-----||
|-----------------------|-----||
|-----------------------|-----||
    
    

0 Commentaires : réagissez !

1 2 3 4 5
3 notes
Notes pour Sultans Of Swing - Solo 1 & 2 Guitare Tab - (Dire Straits) | Sweepyto : 5/5 sur 3 notes
Aucun commentaire !

En Live

Opsi01 vient tout juste de rejoindre la communauté Sweepyto. Bienvenue ! il y a 9 heures
Mamad12 vient tout juste de rejoindre la communauté Sweepyto. Bienvenue ! il y a 17 heures
Jem77v vient tout juste de rejoindre la communauté Sweepyto. Bienvenue ! il y a 2 jours
MacFly44700 vient tout juste de rejoindre la communauté Sweepyto. Bienvenue ! il y a 4 jours
Shambhujiii40 vient tout juste de rejoindre la communauté Sweepyto. Bienvenue ! il y a 1 semaine
Le G a commenté le topic [Le bar est ouvert] de Poppy il y a 2 semaines
Nath67 vient tout juste de rejoindre la communauté Sweepyto. Bienvenue ! il y a 2 semaines
Ventripotent vient tout juste de rejoindre la communauté Sweepyto. Bienvenue ! il y a 3 semaines