ConnexionConnexionInscription
E A D G B E
159 connectés Aller à Slappyto Basse
Thomann Thomann

Ron Thal - Hall of souls - accords [ Artiste ]

Publié par le
09/11/2010
3889 vues
Avancé 4
http://www.youtube.com/watch?v=aEFdc_jWmXA
    
        

                     
E||-------------0-----------9-----------|---0----------------|
B||-----------0-----------0-------------|--12----------------|
G||°-------10----------10---------------|--10----------------|
D||-----11--------11--------------------|--11----------------|
A||°--0--------------0------------------|---0----------------|
E||-------------------------------------|--------------------|


          
|--------------------|--4----------------|---7-----------------|
|--10----------------|--0----------------|---0-----------------|
|---9----------------|--5----------------|---5-----------------|
|--11----------------|--6----------------|---6-----------------|
|---0----------------|-------------------|--(6)----------------|
|--------------------|--0----------------|---0-----------------|


           
|--12----------------|---0-----------------||--10----------------|
|---0----------------|---0-----------------||---9----------------|
|--10----------------|--10----------------°||--11----------------|
|---9----------------|---9-----------------||--12----------------|
|--11----------------|--11----------------°||---0----------------|
|---0----------------|---0-----------------||--------------------|


          
|--6-------------------|---0----------------|--------------------|
|--5-------------------|--12----------------|--------------------|
|--7-------------------|--11----------------|--------------------|
|--8-------------------|--12----------------|--------------------|
|------------------7---|--11----------------|--------------------|
|------------------0---|---0----------------|--------------------|


     
|--7----------------|---9----------------|--4----------------|
|--3----------------|---0----------------|--3----------------|
|--6----------------|--10----------------|--2----------------|
|--3----------------|--11----------------|--4----------------|
|-------------------|---0----------------|--0----------------|
|--0----------------|--------------------|-------------------|


                                              NH  NH  NH                
         
|---8----------------|---0----------------|-------------------5--------||
|---0----------------|---0----------------|-------------------5--------||
|--11----------------|--10----------------|-------------------6--------||
|--10----------------|---9----------------|----------<>7---------------||
|---0----------------|--11----------------|------<>5-------------------||
|--------------------|---0----------------|--<>5-----------------------||

    
    

0 Commentaires : réagissez !

1 2 3 4 5
1 note
Notes pour Hall Of Souls - Accords Guitare Tab - (Ron Thal) | Sweepyto : 5/5 sur 1 note
Aucun commentaire !

En Live

Pascal'son et 36seb ont commenté le topic [Association de mots] de Arnold Layne il y a 6 jours
Mister GROOVE vient tout juste de rejoindre la communauté Sweepyto. Bienvenue ! il y a 1 semaine
Slash8 a commenté le cours de Poppy il y a 2 semaines
Slash8 vient tout juste de rejoindre la communauté Sweepyto. Bienvenue ! il y a 2 semaines
Pascal'son et Poppy ont commenté le topic [Le bar est ouvert] de Poppy il y a 2 semaines