ConnexionConnexionInscription
E A D G B E
162 connectés Aller à Slappyto Basse
Thomann Thomann

Antonio jobim carlos - The girl from Ipanema - accords [ Artiste ]

Publié par le
09/11/2010
17865 vues
Moyen 2
http://www.deezer.com/listen-1087618
    
        

     Db6/9               Eb9                 Ebm9              
          
E||-------------------|-------------------|-------------------|
B||--4----------------|--6----------------|--6----------------|
G||--3----------------|--6----------------|--6----------------|
D||--3----------------|--5----------------|--4----------------|
A||--4----------------|--6----------------|--6----------------|
E||-------------------|-------------------|-------------------|


  D7#9                Db6/9               D6/9                Dmaj7             
                 
|-------------------|-------------------|-------------------|-------------------|
|--6----------------|--4----------------|--5----------------|--7----------------|
|--5----------------|--3----------------|--4----------------|--6----------------|
|--4----------------|--3----------------|--4----------------|--7----------------|
|--5----------------|--4----------------|--5----------------|--5----------------|
|-------------------|-------------------|-------------------|-------------------|


  G6                  Dm7                 Bb7                 Eb7               
             
|-------------------|-------------------|-------------------|-------------------|
|--5----------------|--6----------------|--6----------------|--7----------------|
|--4----------------|--5----------------|--7----------------|--6----------------|
|--3----------------|--7----------------|--6----------------|--8----------------|
|-------------------|--5----------------|-------------------|--6----------------|
|--3----------------|-------------------|--6----------------|-------------------|


  B7                   Fm7                 Bb7alt            
                
|-------------------|--------------------|--7----------------|
|--7----------------|---9----------------|--7----------------|
|--8----------------|---8----------------|--7----------------|
|--7----------------|--10----------------|--6----------------|
|-------------------|---8----------------|-------------------|
|--7----------------|--------------------|--6----------------|


  Ebm7                Gb7alt             
                   
|-------------------|--5----------------||
|--7----------------|--5----------------||
|--6----------------|--5----------------||
|--8----------------|--4----------------||
|--6----------------|-------------------||
|-------------------|--4----------------||
    
    

0 Commentaires : réagissez !

1 2 3 4 5
0 notes
Aucun commentaire !

En Live

Biwulf a commenté le wall de bigyouth il y a 2 heures