ConnexionConnexionInscription
E A D G B E
134 connectés Aller à Slappyto Basse
Thomann Thomann

Chet Atkins - Mister Sandman - picking [ Artiste ]

Publié par le
09/11/2010
20941 vues
Avancé 2
http://www.deezer.com/listen-601654
    
        

                              Mister Sandman                               

A jouer en picking.

                             A7M                                           
   
E||----------------------|-------------------4----|-----------------------|
B||----------------------|--------------5---------|--7----5---------------|
G||----------------------|---------6--------------|------------6----------|
D||------------4----6----|---7--------------------|-----------------7S----|
A||-------7--------------|--(0)-------------------|-----------------------|
E||----------------------|------------------------|-----------------------|


                           E7                    A7M                   
  
|-----------------------|--------------------|-------------------4----|
|------------7----10----|--9-----------------|--------------5---------|
|-------7---------------|--7-----------------|---------6--------------|
|--9--------------------|--9-----------------|---7--------------------|
|-----------------------|--------------------|--(0)-------------------|
|-----------------------|-----------0--------|------------------------|


                                                   E7             A6    
 
|-----------------------|-----------------------|------------0---------|
|--7----5---------------|------------7----10----|--9--------------7----|
|------------6----------|-------7---------------|--7-------------------|
|-----------------7S----|--9--------------------|--9-------------------|
|-----------------------|-----------------------|----------------------|
|-----------------------|-----------------------|-------0--------------|


   A7Madd13                                           G#7                  
 
|--4------------------------|----------------------|--4----4---------4----|
|--------------7------------|----------------------|--7---------7---------|
|-----------6----------6----|-------6---------6----|--5-------------------|
|-----------7----------7----|-------7---------7----|-------4---------4----|
|--0------------------------|--0-------------------|------------6---------|
|-----------------0---------|------------0---------|--4-------------------|


                          C#9/5+/G#                                         
  
|----------------------|------------5----5----4----|--5-------4------------|
|----------------------|------------4---------4----|-----------------------|
|----------------------|------------4---------4----|-------4----------4----|
|----------------------|------------3---------3----|-------3----------3----|
|-----------------3----|--4------------------------|--4--------------------|
|--4----4----6---------|-----------------4---------|-------------4---------|


             F#7                                 B9                   
 
|----------------------|----------------------|-------4----4----2----|
|--3----3----2----3----|----------------------|-------2---------2----|
|--3----3----3----3----|----------------------|-------2---------2----|
|-------2---------2----|----------------------|-------1---------1----|
|------------4---------|-----------------1----|--2-------------------|
|--2-------------------|-------2----4---------|------------2---------|


                           E7add13                                        
 
|--4-------2------------|-------------------------|-------0--------------|
|-----------------------|--2-------2----0----2----|----------------------|
|-------2----------2----|--1-------1----1----1----|----------------------|
|-------1----------1----|----------0---------0----|----------------------|
|--2--------------------|---------------2---------|----------------------|
|-------------2---------|--0----------------------|--0---------2----4----|


   Aadd9      A                                    F9                   
 
|--------7----7----5----|--7-------5------------|--8---------8---------|
|-----------------------|-----------------------|--8---------8---------|
|-----------------------|-------6----------6----|--8---------8---------|
|--------7---------7----|-------7----------7----|-------7---------7----|
|--0--------------------|--0--------------------|--8-------------------|
|-------------0---------|-------------0---------|------------8---------|


   E13                    A7Madd13                                         
 
|--9----7--------------|--4------------------------|----------------------|
|--7----7--------------|--------------7------------|----------------------|
|--7----7--------------|-----------6----------6----|-------6---------6----|
|-------6---------6----|-----------7----------7----|-------7---------7----|
|--7-------------------|--0------------------------|--0-------------------|
|------------0---------|-----------------0---------|------------0---------|


   G#7                                               C#9/5+/G#            
 
|--4----4---------4----|---------------------|-------5---------5----4----|
|--7---------7---------|---------------------|-------4--------------4----|
|--5-------------------|---------------------|-------4--------------4----|
|-------4---------4----|---------------------|-------3--------------3----|
|------------6---------|------------3--------|--4------------------------|
|--4-------------------|--4----6-------------|-----------------4---------|


                                     F#7                               
  
|--5-------4------------|----------------------|----------------------|
|-----------------------|--3----3----2----3----|----------------------|
|-------4----------4----|--3----3----3----3----|-------3---------3----|
|-------3----------3----|-------2---------2----|-------2---------2----|
|--4--------------------|------------4---------|------------4---------|
|-------------4---------|--2-------------------|--2-------------------|


   Bm                          Bm7             
 
|-----------------2----|-------5----5----5----|
|------------3---------|-------3---------3----|
|--4-------------------|-------2---------2----|
|-------4---------4----|-------4---------4----|
|--2-------------------|--2-------------------|
|------------2---------|------------2---------|

 
   Bm/5-/A                                            
 
|--7-------------7------------|------------5----7----|
|----------6------------------|----------------------|
|-----------------------------|----------------------|
|-------------7----------7----|-------7--------------|
|--5--------------------------|--5-------------------|
|-------------------5---------|----------------------|


   B9                     E9+/5+                   A                    
 
|--9---------9---------|--9-----------9---------|--7----5--------------|
|--7---------7---------|--9-----------9---------|--5----5--------------|
|--8---------8---------|--7-----------7---------|--6----6---------6----|
|-------7---------7----|---------6---------6----|-------7---------7----|
|------------9---------|--7---------------------|----------------------|
|--7-------------------|--------------7---------|--5---------5---------|

    
    

0 Commentaires : réagissez !

1 2 3 4 5
1 note
Notes pour Mister Sandman - Picking Guitare Tab - (Chet Atkins) | Sweepyto : 5/5 sur 1 note
Aucun commentaire !

En Live

Biwulf a commenté le wall de bigyouth il y a 3 jours