ConnexionConnexionInscription
E A D G B E
149 connectés Aller à Slappyto Basse
Thomann Thomann

Carlos Santana - Europa [ Artiste ]

Publié par le
22/11/2010
42980 vues
Avancé 1
http://www.deezer.com/listen-534868
    
        

  
E||--------8--10--10h11--10----8----|-----------------------|------------8-8h-10-8~-------------|
B||-----8------------------------11-|--8-9~-----------------|-------9-11-------------11---------|
G||---------------------------------|-----------------------|------------------------------10---|
D||---------------------------------|-----------------------|-----------------------------------|
A||---------------------------------|-----------------------|-----------------------------------|
E||---------------------------------|-----------------------|-----------------------------------|


    
|--------------------|---------------------------------|-------------------------|
|--------------------|-----8--9--11h--13--11----9-8----|----------8--------------|
|--12----------------|------------------------------8S-|--10--------8-10~--------|
|--------------------|---------------------------------|-------------------------|
|--------------------|---------------------------------|-------------------------|
|--------------------|---------------------------------|-------------------------|



|-------------------------------|-------------------------------|--8------8--10h--11--10----8-----|
|---------8--9h--11--9--8-------|-------------------------------|--8---8-----------------------11-|
|-----10------------------10-8~-|---------10-8------------------|--8------------------------------|
|-------------------------------|--------------10-8-------------|---------------------------------|
|-------------------------------|-------------------8-6-10-6----|---------------------------------|
|-------------------------------|-----------------------------8-|---------------------------------|


                                          |---3---|                                 
                
|---------------------|------------8-8h-10-8~-----------------|---------------------|
|--8-9----------------|-------9-11----------------11----------|---------------------|
|---------------------|---------------------------------10S---|--12~----------------|
|---------------------|---------------------------------------|---------------------|
|---------------------|---------------------------------------|---------------------|
|---------------------|---------------------------------------|---------------------|


                                                                                   |-3-|       
    
|----------------------------------|------------------------|----------------------------------|
|-----8--9--11h--13--11--9-8-------|------------------------|---------8--9h--11---9-8-9-8------|
|----------------------------8S-10-|-----------8-10~--------|-----10----------------------10S--|
|----------------------------------|------------------------|----------------------------------|
|----------------------------------|------------------------|----------------------------------|
|----------------------------------|------------------------|----------------------------------|


                 
|---------------------|-------------------13b----|--13b----------------|
|---------------------|-------------13-----------|---------------------|
|--12~----------------|-------12-----------------|---------------------|
|---------------------|--------------------------|---------------------|
|---------------------|--------------------------|---------------------|
|---------------------|--------------------------|---------------------|


  
|-------13-11-13--13S--16-----------|--10-13-13-11-13b--------13-11-13-11~-|
|--------------------------------11-|--------------------------------------|
|-----------------------------12----|--------------------------------------|
|-----------------------------------|--------------------------------------|
|-----------------------------------|--------------------------------------|
|-----------------------------------|--------------------------------------|


 
|----13------13br--13b--13b--13br-13-11----|--13-11-10~------11-10------------------------|
|---------------------------------------13-|----------------------------------------------|
|------------------------------------------|---------------------------12--10-8S-7--------|
|------------------------------------------|----------------------------------------------|
|------------------------------------------|----------------------------------------------|
|------------------------------------------|----------------------------------------------|


  
|-------11br----11-8-------------------|-----------------------------|--8----------------------|
|--------------------11-8br------------|--8--------------------------|--8----------------------|
|---------------------------10-10-8----|----8------------------------|--8-----------7----8h----|
|-----------------------------------10-|------10--------8S-----------|--------10---------------|
|--------------------------------------|-------------------8-8-6-----|-------------------------|
|--------------------------------------|-------------------------8-8-|-------------------------|


                                                     |---3--|                                    
   
|------------------------------|--------------------------------|--------------------------------|
|------8-------------8---------|--------8-----------------------|--7-8-11---------7-8-11---------|
|--10----------8-10----------8-|--8-10----------10----8--10--8--|--------------------------------|
|------------8-----------------|-------------8------------------|---------------8--------------8-|
|------------------------------|--------------------------------|--------------------------------|
|------------------------------|--------------------------------|--------------------------------|


  
|---------------8----------8-----------------|---------------------------------|
|--8-11-11-8-11---11--11b----11--------------|-------8--------------8----------|
|-------------------------------10br-10-8----|--8-10------------10-------------|
|-----------------------------------------10-|---------------10-------------10-|
|--------------------------------------------|---------------------------------|
|--------------------------------------------|---------------------------------|


 
|----------8-----------------------------|---------------------------------|
|-------8----11-8------------------8-----|---------------------------------|
|--10b------------10br--10-8----10---8~--|---------10-8--------------------|
|----------------------------10----------|--------------10-8---------------|
|----------------------------------------|-------------------10-8-6-10-6---|
|----------------------------------------|---------------------------------|


                                                                                   |---3--|   
   
|--------------------------|--------------------------------|---------------------------------|
|--------------------------|-------8--------------8---------|-------8-------------------------|
|--------------7----8------|--8-10-----------8-10-----------|--8-10-----------10----8--10--8--|
|--------10-------------10-|---------------8--------------8-|---------------8-----------------|
|--------------------------|--------------------------------|---------------------------------|
|--8-----------------------|--------------------------------|---------------------------------|


  
|----------------------------------|---------------8------------8----------|
|--7S-8-11---------7S-8-11---------|--8-11-11-8-11---11--11b------11-8-----|
|----------------------------------|-----------------------------------10b-|
|----------------8---------------8-|---------------------------------------|
|----------------------------------|---------------------------------------|
|----------------------------------|---------------------------------------|


  
|-------8-------------------------------|--------------8------------------------|
|-----8---11-8-----------8-------8------|------------8---11-8-------------------|
|--------------10b--8------8h-10---10~--|-------10b-----------10br--8-------10S-|
|---------------------10----------------|-----------------------------10-12-----|
|---------------------------------------|---------------------------------------|
|---------------------------------------|---------------------------------------|


                   |---3---|                                                                        
               
|----------------------------------------------|---------------------13b----|--13b----------------|
|----------------------------------------------|---------------13-----------|---------------------|
|--12~-------------------12--12h-14-12---12-14-|--12~----12-----------------|---------------------|
|----------------10--14------------------------|----------------------------|---------------------|
|---------10S-12-------------------------------|----------------------------|---------------------|
|----------------------------------------------|----------------------------|---------------------|


    
|-------13br----11---13-----11---13b-----|--13br--13p-11-13-11h~--13----------|
|----------------------------------------|------------------------------------|
|----------------------------------------|------------------------------------|
|----------------------------------------|------------------------------------|
|----------------------------------------|------------------------------------|
|----------------------------------------|------------------------------------|


   
|-------13b----13br--------11-|--13-13br-11-13-11-10----11-10-----------|
|-----------------------------|-----------------------------------------|
|-----------------------------|-----------------------------------------|
|-----------------------------|-----------------------------------------|
|-----------------------------|-----------------------------------------|
|-----------------------------|-----------------------------------------|


   
|-----11br------11-8-------------------|---------------------------|-------------------------|
|--------------------11-8--------------|--8------------------------|-------------------------|
|-------------------------10br-10-8----|----8----------------------|-----8-8~----------------|
|-----------------------------------10-|------10~----------------8-|--10-------------------8-|
|--------------------------------------|---------------------------|-------------------------|
|--------------------------------------|---------------------------|-------------------------|


 
|----------------------------|-------------------------------------------|
|-----8-8------------8-11-9~-|-----8-11-9~--8----------------------------|
|----------------------------|----------------10S-12S-10-8----10b-8------|
|--10------------------------|-----------------------------10-------10-8-|
|----------------------------|-------------------------------------------|
|----------------------------|-------------------------------------------|


    
|-------------------------------|----11--------------8-11-10-11-10-8-|
|-----8-8-----------8-11S-13-13-|------------------8-----------------|
|-------------------------------|------------------------------------|
|--10---------------------------|------------------------------------|
|-------------------------------|------------------------------------|
|-------------------------------|------------------------------------|


    
|--11-10-11-10-8-11-10-11-10-8-11-10-8-11-10-11-10-8-11-10-8-11b-|
|----------------------------------------------------------------|
|----------------------------------------------------------------|
|----------------------------------------------------------------|
|----------------------------------------------------------------|
|----------------------------------------------------------------|


                  |--3-|       |--3-|                                        
     
|---------11-10-8-11-10-8----------------8-11-13b-|-------------13b----13b---|
|-------------------------9--8--------------------|--------------------------|
|------------------------------10-8---------------|--------------------------|
|-----------------------------------10------------|--------------------------|
|-------------------------------------------------|--------------------------|
|-------------------------------------------------|--------------------------|


  
|--13br--13br--13br--13br-----------|-------------------|-------------------13-|
|-----------------------------------|-------------------|----------------------|
|-----------------------------------|-------------------|----------------------|
|-----------------------------------|-------------------|----------------------|
|-----------------------------------|-------------------|----------------------|
|-----------------------------------|-------------------|----------------------|


                                             |--3--|                               
  
|----13--11~--11~--11~--11~--11~--11~--11~-|-----8--8---------8--------------------|
|------------------------------------------|-----------11b------11-8---------------|
|------------------------------------------|-------------------------10b-10-8----8-|
|------------------------------------------|----------------------------------10---|
|------------------------------------------|---------------------------------------|
|------------------------------------------|---------------------------------------|


  
|----------------------------------------------|-----------------------------------|
|-------8--------------------------------------|--8~-----8-------11---9---8--9-8~--|
|----10---8----------------------10-----7-8-10-|------10----10---------------------|
|------------10-8--------------8-----10--------|-----------------------------------|
|-----------------10S-8-6-8-10-----------------|-----------------------------------|
|----------------------------------------------|-----------------------------------|


    
|-----------------------------------|------------------------------------|
|-----9-8---------8~----------------|--8-----8~-------11---9---8--9-6S-8-|
|---------10-8-10------------7-8-10-|-----10-----10----------------------|
|-------------------------10--------|------------------------------------|
|-----------------------------------|------------------------------------|
|-----------------------------------|------------------------------------|


  
|----------------------------------------|-----------------------------------|
|--8~---9-8---------8~-------------------|--8-----8-------11---9---8--9-6S-8-|
|-----------10-8-10--------------7S-8-10-|-----10----10----------------------|
|-----------------------------10---------|-----------------------------------|
|--------------------------10------------|-----------------------------------|
|----------------------------------------|-----------------------------------|


    
|----------------------------------|-------------------------------------|
|------8---------8~----------------|--8-----8-------11---9---8--9--------|
|--------10-8-10------------7-8-10-|-----10----10-----------------10S-12-|
|------------------------10--------|-------------------------------------|
|----------------------------------|-------------------------------------|
|----------------------------------|-------------------------------------|


 
|-------------------------|----11~-11------------11----11-13b-|--13------13b---13-13b---13b---13b-|
|----------------11-13-13-|-------------------------13--------|-----------------------------------|
|-------------12----------|-----------------------------------|-----------------------------------|
|-------------------------|-----------------------------------|-----------------------------------|
|-------------------------|-----------------------------------|-----------------------------------|
|-------------------------|-----------------------------------|-----------------------------------|


  
|--13b----------------|--13-11--11--11--11--13br--13-11-13-11S----|
|---------------------|-------------------------------------------|
|---------------------|-------------------------------------------|
|---------------------|-------------------------------------------|
|---------------------|-------------------------------------------|
|---------------------|-------------------------------------------|


     
|--15-18-18-15-18b--18b---18br----15---|
|--------------------------------------|
|--------------------------------------|
|--------------------------------------|
|--------------------------------------|
|--------------------------------------|


   
|------15-15-18-15-----15-15-18-15-----15-15-18-15-----15-15-18-15-----15-18-15----15-18b-|
|--18b-------------18b-------------18b-------------18b-------------18b----------18--------|
|-----------------------------------------------------------------------------------------|
|-----------------------------------------------------------------------------------------|
|-----------------------------------------------------------------------------------------|
|-----------------------------------------------------------------------------------------|


  
|--18b--18b---18b---18br--15------18-18-18-|------18-18-----18-18-----18-18-----18-18-18-18--18-|
|----------------------------18b-----------|--18b-------18b-------18b-------18b-----------------|
|------------------------------------------|----------------------------------------------------|
|------------------------------------------|----------------------------------------------------|
|------------------------------------------|----------------------------------------------------|
|------------------------------------------|----------------------------------------------------|


  
|-------18------18------18------18------18------18------18------18------18------|
|--18br----18br----18br----18br----18br----18br----18br----18br----18br---------|
|-------------------------------------------------------------------------------|
|-------------------------------------------------------------------------------|
|-------------------------------------------------------------------------------|
|-------------------------------------------------------------------------------|


 
|-------18----------------11b----11-|
|--18br----18S----------------------|
|-----------------------------------|
|-----------------------------------|
|-----------------------------------|
|-----------------------------------|



|--11b--11-8-----------------------------------------------8-------|
|------------11-8--------------------------------------------------|
|-----------------10br---8----10-8---------------------10b---10p-8-|
|--------------------------10------10-8----------------------------|
|---------------------------------------10S-8-6-8------------------|
|-------------------------------------------------8----------------|


 
|-----------------------------------------------------11br-11--|
|------8-11p-8-----8-11p-8-----8-11b----11-8--------0----------|
|--10b---------10b---------10b---------------10-8--------------|
|--------------------------------------------------------------|
|--------------------------------------------------------------|
|--------------------------------------------------------------|


   
|--11-8--------------------------------------------|
|-------11-8---------------------------------------|
|------------10br---8-8----------------------------|
|-------------------------10-8-------------------8-|
|------------------------------10S-8-6---6-8S-10---|
|--------------------------------------8-----------|


  
|----------------------------------------------------|---------------------------------18-18---|
|----------------------------------------------------|-----16~---16-18---18S-20-20--20---------|
|--------------------------------8---10br-10-8-------|--17-------------------------------------|
|--8~-8~-8~-8~-8~-8~-8~-8~-8~-10---------------10----|-----------------------------------------|
|----------------------------------------------------|-----------------------------------------|
|----------------------------------------------------|-----------------------------------------|


                                                |---3---|                      
   
|----20b------20b----20b---20b---20b-|----20b---20--20--20--20-20-20S----11b---|
|------------------------------------|-----------------------------------------|
|------------------------------------|-----------------------------------------|
|------------------------------------|-----------------------------------------|
|------------------------------------|-----------------------------------------|
|------------------------------------|-----------------------------------------|


    
|----11b---11b--11p-8-------------------------------------|-----------------------------------|
|---------------------11p-8-------------------------------|--8-----------------------15-16-18-|
|---------------------------10br---8----10-8-------7-8-10-|-----------------------17----------|
|------------------------------------10------10-10--------|-----10-10~------------------------|
|---------------------------------------------------------|-----------------------------------|
|---------------------------------------------------------|-----------------------------------|


  
|--13S--15---------------------------------|------------------------------------|
|------------------------------------------|--8------------------------15-16-18-|
|-------------17-15-17-15~----------7-8-10-|------------------------17----------|
|--------------------------------10--------|------10-10~------------------------|
|------------------------------------------|------------------------------------|
|------------------------------------------|------------------------------------|


  
|---------18-15--------18-18-18-18-18-18-18-|------18-18-----18-18-----18-18------18-----18-18----|
|--18b-----------18b------------------------|--18b-------18b-------18b-------18b-----18b-------18b|
|-------------------------------------------|-----------------------------------------------------|
|-------------------------------------------|-----------------------------------------------------|
|-------------------------------------------|-----------------------------------------------------|
|-------------------------------------------|-----------------------------------------------------|


      
|--18-18-----18-18-----18-18-18-18-18----------|
|--------18b-------18b----------------18b------|
|----------------------------------------------|
|----------------------------------------------|
|----------------------------------------------|
|----------------------------------------------|


  
|-------18------18------18------18------18------18------18------18------18------|
|--18br----18br----18br----18br----18br----18br----18br----18br----18br---------|
|-------------------------------------------------------------------------------|
|-------------------------------------------------------------------------------|
|-------------------------------------------------------------------------------|
|-------------------------------------------------------------------------------|


   |---3---|                                                                      
   
|--------------------------------------------|------------------------------------|
|--18br-18-18-18S---------16b-------15-16-18-|--18b-------------------------------|
|--------------------------------17----------|---------17-17~----17S-------7-8-10-|
|--------------------------------------------|--------------------------10--------|
|--------------------------------------------|------------------------------------|
|--------------------------------------------|------------------------------------|


                    
|------------------------|-------------------|-------------------||
|--8---------------------|-------------------|-------------------||
|------------------------|-------------------|-------------------||
|----10-10---------------|-------------------|-------------------||
|------------------------|-------------------|-------------------||
|------------------------|-------------------|-------------------||
    
    

0 Commentaires : réagissez !

1 2 3 4 5
7 notes
Notes pour Europa Guitare Tab - (Carlos Santana) | Sweepyto : 5/5 sur 7 notes
Aucun commentaire !

En Live

Biwulf a commenté le wall de bigyouth il y a 3 jours