ConnexionConnexionInscription
E A D G B E
145 connectés Aller à Slappyto Basse
Thomann Thomann

AC DC - Highway to Hell [ Artiste ]

Publié par le
22/11/2010
29718 vues
Moyen 1
http://www.youtube.com/watch?v=fsDpznl8eIs
    
        

 
                                    A                        D/F#     G5 
 
E|-------------------|-----------------------||--------------------------|
B|-------------------|--------------2--2--2--||---------------3----3--3--|
G|-------------------|--------------2--2--2--||°--------------2----2--0--|
D|-------------------|--------------2--2--2--||---------------0----0--0--|
A|-------------------|--------------0--0--0--||°--------------x----x--x--|
E]-------------------]-----------------------||---------------2----2--3--|


               D/F#    G5       D/F#    G5    D/F#    A                             
                                                                                 3x
|-------------------------|------------------------------|------------------------||
|--------------3----3--3--|-----3----3--3-----3-------2--|--2-----------2--2--2---||
|--------------2----2--0--|-----2----2--0-----2-------2--|--2-----------2--2--2--°||
|--------------0----0--0--|-----0----0--0-----0-------2--|--2-----------2--2--2---||
|--------------x----x--x--|-----x----x--x-----x-------0--|--0-----------0--0--0--°||
|--------------2----2--3--|-----2----2--3-----2----------|------------------------||


               D/F#    G5                D/F#    G5       D/F#    G5    D/F#    A   
   
|-------------------------|-------------------------|------------------------------|
|--------------3----3--3--|--------------3----3--3--|-----3----3--3-----3-------2--|
|--------------2----2--0--|--------------2----2--0--|-----2----2--0-----2-------2--|
|--------------0----0--0--|--------------0----0--0--|-----0----0--0-----0-------2--|
|--------------x----x--x--|--------------x----x--x--|-----x----x--x-----x-------0--|
|--------------2----2--3--|--------------2----2--3--|-----2----2--3-----2----------|


                                                        REFRAIN

   E5                                                      A               D5  
    
|--------------------------|--------------------------||----------------------|
|--------------------------|--------------------------||---2---------------3--|
|--------------------------|--------------------------||°--2---------------2--|
|--2-----------------------|--2--2--2--2--2--2--2--2--||---2------------2--0--|
|--2-----2--2--2--2--2--2--|--2--2--2--2--2--2--2--2--||°--0------------0-----|
|--0--0--0--0--0--0--0--0--|--0--0--0--0--0--0--0--0--||----------------------|


               G5   D5        A               D5                                    A         
                        3x   
|-------------------------||---------------------|-------------------|-----------------------|
|-(3)-3--3--0--3----3-----||--2---------------3--|--3----------------|--(3)------3--2--2--2--|
|-(2)-2--2--0--0----2----°||--2---------------2--|--2----------------|--(2)------2--2--2--2--|
|-(0)-0--0--0--0----0-----||--2------------2--0--|--0----------------|--(0)------0--2--2--2--|
|--------------x---------°||--0------------0-----|-------------------|--------------0--0--0--|
|--------------3----------||---------------------|-------------------|-----------------------|


                                              PONT
   A                D5                        D        G        D                                            
            
|----------------------|-------------------|--2--2--2--3--3--3--2----|--(2)----------------|
|--2--------2-------3--|--3----------------|--3--3--3--3--3--3--3----|--(3)----------------|
|--2--------2-------2--|--2----------------|--2--2--2--0--0--0--2----|--(2)----------------|
|--2--------2----2--0--|--0----------------|--0--0--0--0--------0----|--(0)----------------|
|--0--------0----0-----|-------------------|-------------------------|---------------------|
|----------------------|-------------------|-------------------------|---------------------|


                                                      SOLO   
   D        G        D          G        D    D                      
                                                       1t          1t       1t
|--2--2--2--3--3--3--2----|-----3--3--3--2----2-----||----------5-------------------[
|--3--3--3--3--3--3--3----|-----0--0--0--3----3--3--||-------5---------5--5------5--|
|--2--2--2--0--0--0--2----|--2--0--0--0--2----2-----||--7b---------7b--------7b-----|
|--0--0--0--0--------0----|--0--0--0--0--0----0-----||------------------------------|
|-------------------------|-------------------------||------------------------------|
|-------------------------|-------------------------||------------------------------]


      1t        1t         1t                         ½t              ½t
|------------------------------|-------------------------|----------------------------|
|--5------5--5------5--5--7brb-|--7------7--5------------|----------------------------|
|-----7b--------7b--------7brb-|--7------7--5-----7--5b--|-(5)------------------------|
|------------------------------|---------------7---------|--------4--4br--4--2--------|
|------------------------------|-------------------------|-----0----------------3--0--|
|------------------------------|-------------------------|----------------------------|


         1t          1t                        1t
|-------------5------------|-------------5-----------|---------------------5--|
|----------------5---------|-------------5-----5-----|--(5)-------------------|
|--2----4b----------4brb---|--2----0--------0--4b----|--(4)--2----0-----2-----|
|--------------------------|-------------------------|------------------------|
|--------------------------|----------0--------------|---------------0--------|
|--------------------------|-------------------------|------------------------|


          1t     sl.    sl.                               1t
|-----------------------------|-------------------|-----15b----15--12--------------|
|--5--------------------------|-------------------|--------------------14----------|
|-----4--4brb---14/----18\----|-------------------|------------------------14--14--|
|-----------------------------|-------------------|--------------------------------|
|-----------------------------|-------------------|--------------------------------|
|-----------------------------|-------------------|--------------------------------|


                            ½t   ½t     ½t
|-------------------|-----12---12-----12-------------|-------------------------|
|-------------------|-----13b--13b----13b------------|-------------------------|
|-------------------|------------------------14--11--|--14~~~~~----14----------|
|-------------------|--------------------------------|-------------------------|
|-------------------|--------------------------------|-------------------------|
|-------------------|--------------------------------|-------------------------|


        ½t   ½t   ½t  ½t       ½t   ½t      ½t          ½t                   ½t
|-------------------------15------------|--------------------------|-------12------------------|
|-----13b--13b--13b--13b------13b--13b--|--13b-~~~~~---13b---------|-------13b---------13------|
|---------------------------------------|--------------------------|-----------------------14--|
|---------------------------------------|--------------------------|---------------------------|
|---------------------------------------|--------------------------|---------------------------|
|---------------------------------------|--------------------------|---------------------------|


                                 ½t     ½t  
|----------------------|-------12-----12--------------|--------12------------------|
|----------------------|-------13b----13b----13-------|----------------13------14--|
|--14------------------|-------------------------14~~~|--14----------------14------|
|----------------------|------------------------------|----------------------------|
|----------------------|------------------------------|----------------------------|
|----------------------|------------------------------|----------------------------|


                  ½t     ½t   ½t     ½t   ½t   ½t   ½t   ½t   ½t
|---------------12-----12---12---|--12------------------12---12-----------|
|--12----13-----13b----13b--13b--|--13b--13b--13b--13b--13b--13b----------|
|--------------------------------|--------------------------------14------|
|--------------------------------|------------------------------------16--|
|--------------------------------|----------------------------------------|
|--------------------------------|----------------------------------------|


                             1t      1t                    1t
|----------------12-------13b--|--13b----------------|--13b------------------||
|--------13--13----------------|---------------------|-----------------------||
|--14--------------------------|---------------------|-----------------------||
|------------------------------|---------------------|-----------------------||
|------------------------------|---------------------|-----------------------||
|------------------------------|---------------------|-----------------------||

    
    

3 Commentaires

1 2 3 4 5
2 notes
Notes pour Highway To Hell Guitare Tab - (AC DC) | Sweepyto : 4/5 sur 2 notes
#3
15/10/2012 06:17:41
Ok merci c'était juste pour être sûr 
0
+1
#2
14/10/2012 16:53:53
C esr bien ça, ta corde doit être bloquée. Il suffit qu'un bout de doigt (deja utilisé par l'accord) touche la corde sans l'appuyer contre le manche.
0
+1
#1
14/10/2012 16:39:10
Salut tt le monde
Dsl encore besoin d'aide les x c'est les cordes étouffées c'est ça?
0
+1

En Live

Biwulf a commenté le wall de bigyouth il y a 2 heures