ConnexionConnexionInscription
E A D G B E
156 connectés Aller à Slappyto Basse
Thomann Thomann

Green Day - Basket case [ Artiste ]

Publié par le
22/11/2010
7521 vues
Moyen 1
http://www.deezer.com/fr/#music/result/all/bask...
    
        

Accordage -1/2 ton 

     PM                                                             
        
eb||--------------------------------|-------------------------------|
Bb||--------------------------------|-------------------------------|
Gb||--9-----------------------------|-------------------------------|
Db||--9--9---9---9---9---9---9---9--|----------9--------------9-----|
Ab||--7--7---7---7---7---7---7---9--|--9---9---9--9---9---9---9-----|
Eb||-----------------------------7--|--7---7---7--7---7---7---7--9--|



|------------------------------------|--------------------------------|
|------------------------------------|--------------------------------|
|------------------------------------|--------------------------------|
|------------11------------11-----6--|----------6--------------6------|
|--11---11---11--11---11---11-----6--|--6---6---6--6---6---6---6------|
|---9----9----9---9----9----9--4--4--|--4---4---4--4---4---4---4--4-5-|

  

|-------------------------------|--------------------------------|--------------------------------|
|-------------------------------|--------------------------------|--------------------------------|
|----------------------------9--|----------9--------------9------|--------------------------------|
|----------7----------7--9---9--|--9---9---9--9---9---9---9------|----------9------------------9--|
|--7---7---7--7---7---7--7---7--|--7---7---7--7---7---7---7------|--9---9---9--9---9---9---9---9--|
|--5---5---5--5---5---5---------|----------------------------5-5-|--7---7---7--7---7---7---7---7--|


 
|--------------------------------|--------------------------------|-------------------------------|
|--------------------------------|--------------------------------|-------------------------------|
|--------------------------------|--9-----------------------------|-------------------------------|
|----------9--------------9--9---|--9--9---9---9---9---9---9---9--|----------9--------------9-----|
|--9---9---9--9---9---9---9--7---|--7--7---7---7---7---7---7---9--|--9---9---9--9---9---9---9-----|
|--7---7---7--7---7---7---7------|-----------------------------7--|--7---7---7--7---7---7---7--9--|


     
|------------------------------------|--------------------------------|
|------------------------------------|--------------------------------|
|------------------------------------|--------------------------------|
|------------11------------11-----6--|----------6--------------6------|
|--11---11---11--11---11---11-----6--|--6---6---6--6---6---6---6------|
|---9----9----9---9----9----9--4--4--|--4---4---4--4---4---4---4--4-5-|


     
|-------------------------------|--------------------------------|--------------------------------|
|-------------------------------|--------------------------------|--------------------------------|
|----------------------------9--|----------9--------------9------|--------------------------------|
|----------7----------7--9---9--|--9---9---9--9---9---9---9------|----------9------------------9--|
|--7---7---7--7---7---7--7---7--|--7---7---7--7---7---7---7------|--9---9---9--9---9---9---9---9--|
|--5---5---5--5---5---5---------|----------------------------5-5-|--7---7---7--7---7---7---7---7--|


    
|--------------------------------|-------------------------------|--------------------------------|
|--------------------------------|-------------------------------|--------------------------------|
|--------------------------------|-------------------------------|--------------------------------|
|----------9--------------9--9---|----------7----------7------9--|----------9--------------9--9---|
|--9---9---9--9---9---9---9--7---|--7---7---7--7---7---7--9---9--|--9---9---9--9---9---9---9--7---|
|--7---7---7--7---7---7---7------|--5---5---5--5---5---5--7---7--|--7---7---7--7---7---7---7------|


   
|--------------------------------|--------------------------------|-------------------------------|
|--------------------------------|--------------------------------|-------------------------------|
|----------9------------------9--|----------9--------------9------|-------------------------------|
|--9---9---9--9---9---9---9---9--|--9---9---9--9---9---9---9--9---|----------7----------7------9--|
|--7---7---7--7---7---7---7---7--|--7---7---7--7---7---7---7--7---|--7---7---7--7---7---7--9---9--|
|--------------------------------|--------------------------------|--5---5---5--5---5---5--7---7--|


    
|--------------------------------|--------------------------------|--------------------------------|
|--------------------------------|--------------------------------|--------------------------------|
|--------------------------------|----------9------------------9--|----------9--------------9------|
|----------9--------------9--9---|--9---9---9--9---9---9---9---9--|--9---9---9--9---9---9---9--9---|
|--9---9---9--9---9---9---9--7---|--7---7---7--7---7---7---7---7--|--7---7---7--7---7---7---7--7---|
|--7---7---7--7---7---7---7------|--------------------------------|--------------------------------|


                                                                   open                  
    
|-------------------------------|--------------------------------|-----------------------|
|-------------------------------|--------------------------------|-----------------------|
|-------------------------------|--------------------------------|--9---------7--7----6--|
|----------7----------7------9--|----------9--------------9--9---|--9---------7--7----6--|
|--7---7---7--7---7---7--9---9--|--9---9---9--9---9---9---9--7---|--7---------5--5----4--|
|--5---5---5--5---5---5--7---7--|--7---7---7--7---7---7---7------|-----------------------|


    
|--------------------------|-------------------------|--------------------------|
|--------------------------|-------------------------|--------------------------|
|-----6--6--6--6--6--6--6--|-------------------------|--------------------------|
|-----6--6--6--6--6--6--6--|--7----7--7--7--7--7--9--|-----9--9--9--9--9--9--9--|
|-----4--4--4--4--4--4--4--|--7----7--7--7--7--7--9--|-----9--9--9--9--9--9--9--|
|--------------------------|--5----5--5--5--5--5--7--|-----7--7--7--7--7--7--7--|


    
|---------------------------|----------------------------|---------------------------|
|---------------------------|----------------------------|---------------------------|
|--9----9-------------------|---9------------------------|--9----9-------------------|
|--9----9---9--9----9---11--|--11----11---9--9----9---9--|--9----9---9--9----9---11--|
|--7----7---9--9----9---11--|--11----11---9--9----9---9--|--7----7---9--9----9---11--|
|-----------7--7----7----9--|---9-----9---7--7----7---7--|-----------7--7----7----9--|


   
|----------------------------|------------------------|------------------------|
|----------------------------|------------------------|------------------------|
|---9------------------------|------------------------|------------------------|
|--11----11---9--9----9---9--|--2----2----2--2--2--9--|-----9--9----9--9--9----|
|--11----11---9--9----9---9--|--2----2----2--2--2--9--|-----9--9----9--9--9----|
|---9-----9---7--7----7---7--|--0----0----0--0--0--7--|-----7--7----7--7--7----|


   
|-------------------------|------------------------|-----------------------|
|-------------------------|------------------------|-----------------------|
|--6----6--6--6--6--6-----|------------------------|--6----6----6--6-------|
|--6----6--6--6--6--6--6--|-----6--6----6--6--6----|--7----7----7--7----9--|
|--4----4--4--4--4--4--6--|-----6--6----6--6--6----|--7----7----7--7----7--|
|----------------------4--|-----4--4----4--4--4----|--5----5----5--5----7--|


   
|-------------------------|-------------------------|-------------------------|
|-------------------------|-------------------------|-------------------------|
|-----------9-------------|-------------------------|-------------------------|
|-----9--9--9----9--9--9--|--9----9--9--9--9--9--9--|-----9--9----9--9--9--9--|
|-----7--7--7----7--7--7--|--9----9--9--9--9--9--9--|-----9--9----9--9--9--9--|
|-----7--7-------7--7--7--|--7----7--7--7--7--7--7--|-----7--7----7--7--7--7--|


    
|-------0----------------|------------------------|------------------------|------------------------|
|-------0----------------|------------------------|------------------------|------------------------|
|------------------------|------------------------|--6----6----6--6--6-----|------------------------|
|--2----2----2--2--2--9--|-----9--9----9--9--9----|--6----6----6--6--6--6--|-----6--6----6--6--6----|
|--2---------2--2--2--9--|-----9--9----9--9--9----|--4----4----4--4--4--6--|-----6--6----6--6--6----|
|--0---------0--0--0--7--|-----7--7----7--7--7----|---------------------4--|-----4--4----4--4--4----|


  
|-----------------------|-------------------------|-------------------------|
|-----------------------|-------------------------|-------------------------|
|--6----6----6--6-------|-----------9-------------|-------------------9--8--|
|--7----7----7--7----9--|-----9--9--9----9--9--9--|--9----9--9--9--9--9--9--|
|--7----7----7--7----7--|-----7--7--7----7--7--7--|--9----9--9--9--9--9--9--|
|--5----5----5--5----7--|-----7--7-------7--7--7--|--7----7--7--7--7--7--7--|


  
|-------------------------|------------------------|-------------------------|
|-------------------------|------------------------|-------------------------|
|-------------------------|--6----6----6-----------|-------------------------|
|-----9--9----9--9--9--9--|---------------7--7--9--|-----9--9--9----9--9--9--|
|-----9--9----9--9--9--9--|--7----7----7--7--7--9--|-----9--9--9----9--9--9--|
|-----7--7----7--7--7--7--|--5----5----5--5--5--7--|-----7--7--7----7--7--7--|


  
|------------------------|-------------------------|------------------------|
|------------------------|-------------------------|------------------------|
|--9----9----9--9--9--9--|-----9--9----9--9--9--9--|--6----6----6-----------|
|--9----9----9--9--9--9--|-----9--9----9--9--9--9--|---------------7--7--9--|
|--7----7----7--7--7--7--|-----7--7----7--7--7--7--|--7----7----7--7--7--9--|
|------------------------|-------------------------|--5----5----5--5--5--7--|


  
|-------------------------|------------------------|-------------------------|
|-------------------------|------------------------|-------------------------|
|-------------------------|--9----9----9--9--9--9--|-----9--9----9--9--9--9--|
|-----9--9--9----9--9--9--|--9----9----9--9--9--9--|-----9--9----9--9--9--9--|
|-----9--9--9----9--9--9--|--7----7----7--7--7--7--|-----7--7----7--7--7--7--|
|-----7--7--7----7--7--7--|------------------------|-------------------------|


  
|------------------------|-------------------------|----------------------|
|------------------------|-------------------------|----------------------|
|--6------------------8--|-----8--9--8----8--9--8--|--9--------7--7----6--|
|-------7----7--7--7--9--|-----9--9--9----9--9--9--|--9--------7--7----6--|
|--7----7----7--7--7--9--|-----9--9--9----9--9--9--|--7--------5--5----4--|
|--5----5----5--5--5--7--|-----7--7--7----7--7--7--|----------------------|


  
|--------------------------|------------------------|-------------------------|
|--------------------------|------------------------|-------------------------|
|-----6--6--6--6--6--6--6--|------------------------|-------------------------|
|-----6--6--6--6--6--6--6--|--7----7----7--7--7--9--|-----9--9----9--9--9--9--|
|-----4--4--4--4--4--4--4--|--7----7----7--7--7--9--|-----9--9----9--9--9--9--|
|--------------------------|--5----5----5--5--5--7--|-----7--7----7--7--7--7--|


  
|---------------------------|----------------------------|---------------------------|
|---------------------------|----------------------------|---------------------------|
|--9----9---8--8----8----9--|---9-----9---8--8----8---8--|--9----9---8--8----8----9--|
|--9----9---9--9----9---11--|--11----11---9--9----9---9--|--9----9---9--9----9---11--|
|--7----7---9--9----9---11--|--11----11---9--9----9---9--|--7----7---9--9----9---11--|
|--0----0---7--7----7----9--|---9-----9---7--7----7---7--|--0----0---7--7----7----9--|


   
|----------------------------|---------------------------|----------------------------|
|----------------------------|---------------------------|----------------------------|
|---9-----9---8--8----8---8--|--9----9---8--8----8----9--|---9-----9---8--8----8---8--|
|--11----11---9--9----9---9--|--9----9---9--9----9---11--|--11----11---9--9----9---9--|
|--11----11---9--9----9---9--|--7----7---9--9----9---11--|--11----11---9--9----9---9--|
|---9-----9---7--7----7---7--|--0----0---7--7----7----9--|---9-----9---7--7----7---7--|


                                                           PM 2 bars                                
  
|---------------------------|----------------------------|------------------------------------------|
|---------------------------|----------------------------|------------------------------------------|
|--9----9---8--8----8----9--|---9-----9---8--8----8---8--|------------------------------------------|
|--9----9---9--9----9---11--|--11----11---9--9----9---9--|--7-----------7---7---7---7---7---7---7---|
|--7----7---9--9----9---11--|--11----11---9--9----9---9--|--7-----------7---7---7---7---7---7---7---|
|--0----0---7--7----7----9--|---9-----9---7--7----7---7--|--5-----------5---5---5---5---5---5---5---|


  
|----------------------------------|--------------------------|----------------------|
|----------------------------------|--------------------------|----------------------|
|----------------------------------|--------------------------|----------------------|
|--7---7---7---7---7---7---7---7---|--9--9--9--9--9--9--9--9--|--9-------------------|
|--7---7---7---7---7---7---7---7---|--9--9--9--9--9--9--9--9--|--9-------------------|
|--5---5---5---5---5---5---5---5---|--7--7--7--7--7--7--7--7--|--7-------------------|


  
|------------------------|-------------------------|------------------------|
|------------------------|-------------------------|------------------------|
|------------------------|-------------------------|--6----6----6--6--6-----|
|--2----2----2--2--2--9--|-----9--9----9--9--9--9--|--6----6----6--6--6--6--|
|--2----2----2--2--2--9--|-----9--9----9--9--9--9--|--4----4----4--4--4--6--|
|--0----0----0--0--0--7--|-----7--7----7--7--7--7--|---------------------4--|


  
|------------------------|-----------------------|-------------------------|------------------------|
|------------------------|-----------------------|-------------------------|------------------------|
|------------------------|--6----6----6--6-------|-----------9-------------|--8----8----8--8--9--8--|
|-----6--6----6--6--6----|--7----7----7--7----9--|-----9--9--9----9--9--9--|--9----9----9--9--9--9--|
|-----6--6----6--6--6----|--7----7----7--7----7--|-----7--7--7----7--7--7--|--9----9----9--9--9--9--|
|-----4--4----4--4--4----|--5----5----5--5----7--|-----7--7-------7--7--7--|--7----7----7--7--7--7--|


  
|-------------------------|-------0----------------|------------------------|
|-------------------------|-------0----------------|------------------------|
|-----8--8----8--8--8--8--|-------x-------------8--|-----8--8----8--8--8----|
|-----9--9----9--9--9--9--|--2----2----2--2--2--9--|-----9--9----9--9--9----|
|-----9--9----9--9--9--9--|--2---------2--2--2--9--|-----9--9----9--9--9----|
|-----7--7----7--7--7--7--|--0---------0--0--0--7--|-----7--7----7--7--7----|


  
|------------------------|------------------------|-----------------------|-------------------------|
|------------------------|------------------------|-----------------------|-------------------------|
|--6----6----6--6--6-----|------------------------|--6----6----6--6-------|-----------9-------------|
|--6----6----6--6--6--6--|-----6--6----6--6--6----|--7----7----7--7----9--|-----9--9--9----9--9--9--|
|--4----4----4--4--4--6--|-----6--6----6--6--6----|--7----7----7--7----7--|-----7--7--7----7--7--7--|
|---------------------4--|-----4--4----4--4--4----|--5----5----5--5----7--|-----7--7-------7--7--7--|


                                                        PM                            
  
|--------------------------|--------------------------|-------------------------------|
|--------------------------|--------------------------|-------------------------------|
|--8--8--8--8--8--8--8--8--|--8--8--8--8--8--8--8--8--|-------------------------------|
|--9--9--9--9--9--9--9--9--|--9--9--9--9--9--9--9--9--|--7--7---7---7---7---7--7---9--|
|--9--9--9--9--9--9--9--9--|--9--9--9--9--9--9--9--9--|--7--7---7---7---7---7--7---9--|
|--7--7--7--7--7--7--7--7--|--7--7--7--7--7--7--7--7--|--5--5---5---5---5---5--5---7--|


  
|--------------------------------|-------------------------------|--------------------------------|
|--------------------------------|-------------------------------|----------9--------------9------|
|--------------------------------|--9--9---9--9---9---9---9---9--|--9---9---9--9---9---9---9--9---|
|--9---9---9--9---9---9---9--9---|--9--9---9--9---9---9---9---9--|--9---9---9--9---9---9---9--9---|
|--9---9---9--9---9---9---9--9---|--7--7---7--7---7---7---7---7--|--7---7---7--7---7---7---7--7---|
|--7---7---7--7---7---7---7--7---|-------------------------------|--------------------------------|


  
|-------------------------------|--------------------------------|-------------------------------|
|-------------------------------|--------------------------------|-------------------------------|
|-------------------------------|--------------------------------|--9--9---9--9---9---9---9---9--|
|--7--7---7---7---7---7--7---9--|--9---9---9--9---9---9---9--9---|--9--9---9--9---9---9---9---9--|
|--7--7---7---7---7---7--7---9--|--9---9---9--9---9---9---9--9---|--7--7---7--7---7---7---7---7--|
|--5--5---5---5---5---5--5---7--|--7---7---7--7---7---7---7--7---|-------------------------------|


    
|--------------------------------|--------------------------------|--------------------------------|
|----------9--------------9------|--------------------------------|--------------------------------|
|--9---9---9--9---9---9---9--9---|--------------------------------|--------------------------------|
|--9---9---9--9---9---9---9--9---|--7---7---7---7---7---7--7---9--|--9---9---9--9---9---9---9--9---|
|--7---7---7--7---7---7---7--7---|--7---7---7---7---7---7--7---9--|--9---9---9--9---9---9---9--9---|
|--------------------------------|--5---5---5---5---5---5--5---7--|--7---7---7--7---7---7---7--7---|


  open                                                                      
    
|----------------------|--------------------------|-------------------------|
|----------------------|--------------------------|-------------------------|
|--9--------7--7----6--|-----6--6--6--6--6--6--6--|-------------------------|
|--9--------7--7----6--|-----6--6--6--6--6--6--6--|--7----7--7--7--7--7--9--|
|--7--------5--5----4--|-----4--4--4--4--4--4--4--|--7----7--7--7--7--7--9--|
|----------------------|--------------------------|--5----5--5--5--5--5--7--|


    
|--------------------------|------------------------|--------------------------------|
|--------------------------|------------------------|--------------------------------|
|--------------------------|------------------------|--------------------------------|
|-----9--9--9--9--9--9--9--|--6----6--7----7--6--6--|--11--11--11--11----11--11--11--|
|-----9--9--9--9--9--9--9--|--7----7--7----7--7--7--|--11--11--11--12----12--12--12--|
|-----7--7--7--7--7--7--7--|--0----0--0----0--0--0--|---9---9---9---9-----9---9---9--|


  
|-------------------------|--------------------------|------------------------|
|-------------------------|--------------------------|------------------------|
|-------------9--9--9-----|--------------------------|------------------------|
|--7----7--7--9--9--9--9--|-----9--9--9--9--9--9--9--|--6----6--7----7--6--6--|
|--7----7--7--7--7--7--9--|-----9--9--9--9--9--9--9--|--7----7--7----7--7--7--|
|--5----5--5-----------7--|-----7--7--7--7--7--7--7--|--0----0--0----0--0--0--|


   
|--------------------------------|-------------------------|--------------------------|
|--------------------------------|-------------------------|--------------------------|
|--------------------------------|-------------9--9--9-----|--------------------------|
|--11--11--11--11----11--11--11--|--7----7--7--9--9--9--9--|-----9--9--9--9--9--9--9--|
|--11--11--11--12----12--12--12--|--7----7--7--7--7--7--9--|-----9--9--9--9--9--9--9--|
|---9---9---9---9-----9---9---9--|--5----5--5-----------7--|-----7--7--7--7--7--7--7--|


  
|------------------------|--------------------------------|-------------------------|
|------------------------|--------------------------------|-------------------------|
|------------------------|--------------------------------|-------------9--9--9-----|
|--6----6--7----7--6--6--|--11--11--11--11----11--11--11--|--7----7--7--9--9--9--9--|
|--7----7--7----7--7--7--|--11--11--11--12----12--12--12--|--7----7--7--7--7--7--9--|
|--0----0--0----0--0--0--|---9---9---9---9-----9---9---9--|--5----5--5-----------7--|


  
|--------------------------|-------------------------|-------------------------------|
|--------------------------|-------------------------|-------------------------------|
|--------------------------|-------------------------|-------------------------------|
|-----9--9--9--9--9--9--9--|--6----6--7----7--6--11--|-----11--11--11----11--11--11--|
|-----9--9--9--9--9--9--9--|--7----7--7----7--7--11--|-----11--11--12----12--12--11--|
|-----7--7--7--7--7--7--7--|--0----0--0----0--0---9--|------9---9---9-----9---9---9--|


  
|---------------------|-------------------|---------------------|-------------------||
|---------------------|-------------------|---------------------|-------------------||
|-----------9---------|-------------------|---------------------|-------------------||
|--7--------9------9--|-------------------|--7--------2------9--|-------------------||
|--7--------7------9--|-------------------|--7--------2------9--|-------------------||
|--5---------------7--|-------------------|--5--------0------7--|-------------------||

    
    

0 Commentaires : réagissez !

1 2 3 4 5
1 note
Notes pour Basket Case Guitare Tab - (Green Day) | Sweepyto : 5/5 sur 1 note
Aucun commentaire !

En Live

Selahbesac vient tout juste de rejoindre la communauté Sweepyto. Bienvenue ! il y a 1 jour
Baluchon vient tout juste de rejoindre la communauté Sweepyto. Bienvenue ! il y a 2 jours
James1964 a commenté la tablature de Poppy il y a 6 jours
James1964 vient tout juste de rejoindre la communauté Sweepyto. Bienvenue ! il y a 6 jours
Bouran32 vient tout juste de rejoindre la communauté Sweepyto. Bienvenue ! il y a 1 semaine
Hondaka vient tout juste de rejoindre la communauté Sweepyto. Bienvenue ! il y a 1 semaine
Sasam a commenté le wall de deni's il y a 1 semaine
Pelcat vient tout juste de rejoindre la communauté Sweepyto. Bienvenue ! il y a 1 semaine
Charlot vient tout juste de rejoindre la communauté Sweepyto. Bienvenue ! il y a 2 semaines
Dominique 31 a commenté le wall de bass_5s il y a 2 semaines