ConnexionConnexionInscription
E A D G B E
161 connectés Aller à Slappyto Basse
Thomann Thomann

Nirvana - Come as you are [ Artiste ]

Publié par le
22/11/2010
21211 vues
Débutant 1
http://www.deezer.com/listen-1126780
    
        

Accordage 1 ton en dessous

                           INTRO ET COUPLETS
                          
                                                                             11x
D|-----------------------||-------------------------|-------------------------||
A|-----------------------||-------------------------|-------------------------||
F|-----------------------||°------------------------|------------------------°||
C|-----------------------||-------------------------|-------------------------||
G|-----------------------||°------0-----0-----------|-----2----------2-------°||
D|--------------0--0--1--||--2-------2-----2--2--1--|--0-----0--0-------0--1--||



                                   E
|-------------------------|----------------0--------|
|-------------------------|-----------0----0--0--0--|
|-------------------------|-----------1----1--1--1--|
|-------------------------|-----------2-------2--2--|
|-------0-----0-----------|-----2-------------------|
|--2-------2-----2--2--1--|--0-----0----------------|


REFRAINS
                         
   F#sus4                  A5                    4x
||---------2------------|--------------------------||
||---------2------2-----|--------------------------||
||°--------4------4--0--|--2--2--2--2--2--2--2--2-°||
||--4-------------4--0--|--2-----2-----2-----2-----||
||°---------------------|--0-----0-----0-----0----°||
||--2-------------------|--------------------------||
    
    

1 Commentaire

1 2 3 4 5
5 notes
Notes pour Come As You Are Guitare Tab - (Nirvana) | Sweepyto : 4/5 sur 5 notes
#1
04/10/2012 03:08:54

 

 

 
0
+1

En Live

Selahbesac vient tout juste de rejoindre la communauté Sweepyto. Bienvenue ! il y a 1 jour
Baluchon vient tout juste de rejoindre la communauté Sweepyto. Bienvenue ! il y a 2 jours
James1964 a commenté la tablature de Poppy il y a 6 jours
James1964 vient tout juste de rejoindre la communauté Sweepyto. Bienvenue ! il y a 6 jours
Bouran32 vient tout juste de rejoindre la communauté Sweepyto. Bienvenue ! il y a 1 semaine
Hondaka vient tout juste de rejoindre la communauté Sweepyto. Bienvenue ! il y a 1 semaine
Sasam a commenté le wall de deni's il y a 1 semaine
Pelcat vient tout juste de rejoindre la communauté Sweepyto. Bienvenue ! il y a 1 semaine
Charlot vient tout juste de rejoindre la communauté Sweepyto. Bienvenue ! il y a 2 semaines
Dominique 31 a commenté le wall de bass_5s il y a 2 semaines