ConnexionConnexionInscription
E A D G B E
118 connectés Aller à Slappyto Basse
Thomann Thomann

Nirvana - All apologies [ Artiste ]

Publié par le
22/11/2010
5194 vues
Débutant 4
http://www.deezer.com/listen-2240304
    
        

Accordage 1 ton et demi en dessous.

      c-ean tone                                                                
    
D#||-----------------------------------------|---------------------------------|
A#||-----------------------------------------|---------------------------------|
F#||-----------------------------------------|---------------------------------|
C#||-----------------------------------------|---------------10g12--12--10--9--|
G#||-------------9--10--9--10g12--12--10--9--|--------10--9--------------------|
C#||--0--------------------------------------|--0--0------0--------------------|


  
|---------------------------------|------------------------------|---------------------------------|
|---------------------------------|------------------------------|---------------------------------|
|---------------------------------|---------------11--11--9------|---------------------------------|
|---------------------------------|--------------------0--0--12--|---------------------------------|
|-----9--10--9--10g12--12--10--9--|-----9--10--9-----------------|-----9--10-----10g12--12--10--9--|
|--0---------0------0-------------|--0---------0-----------------|--0---------0--------------------|


    
---------------------------------|---------------------------------|------------------------------|
---------------------------------|---------------------------------|------------------------------|
---------------------------------|---------------------------------|---------------11--11--9------|
---------------10g12--12--10--9--|---------------------------------|--------------------0-----12--|
-----9--10--9--------------0--0--|-----9--10--9--10g12--12--10--9--|-----9--10--9-----------------|
--0---------0--------------------|--0---------0--------------------|--0---------0-----------------|


 
-----------------------------------|---------------------------------|
-----------------------------------|---------------------------------|
-----------------------------------|---------------------------------|
-----------------------------------|---------------10g12--12--10--9--|
-----9--10--(9)--10g12--12--10--9--|-----9--10--9--------------------|
--0----------0---------------------|--0---------0--------------------|


 
-----------------------------------|---------------------------------|
-----------------------------------|---------------------------------|
-----------------------------------|---------------------------------|
-----------------------------------|---------------10g12--12--10--9--|
-----9--10--(9)--10g12--12--10--9--|--------10--9--------------0--0--|
--0----------0-------0-------------|--0--0------0--------------------|



-----------------------------------|---------------------------------|
-----------------------------------|---------------------------------|
-----------------------------------|---------------------------------|
-----------------------------------|---------------10g12--12--10--9--|
-----9--10--(9)--10g12--12--10--9--|-----9--10--9--------------------|
--0----------0---------------------|--0---------0--------------------|


  
-----------------------------------|---------------------------------|
-----------------------------------|---------------------------------|
-----------------------------------|---------------------------------|
-----------------------------------|---------------10g12--12--10--9--|
-----9--10--(9)--10g12--12--10--9--|-----9--10--9--------------------|
--0----------0---------------------|--0---------0--------------------|


  
-----------------------------------|---------------------------------|
-----------------------------------|---------------------------------|
-----------------------------------|---------------------------------|
-----------------------------------|---------------10g12--12--10--9--|
-----9--10--(9)--10g12--12--10--9--|-----9--10--9--------------------|
--0----------0---------------------|--0---------0--------------------|



-----------------------------------|---------------------------------|
-----------------------------------|---------------------------------|
-----------------------------------|---------------------------------|
-----------------------------------|---------------10g12--12--10--9--|
-----9--10--(9)--10g12--12--10--9--|-----9--10--9--------------------|
--0----------0---------------------|--0---------0--------------------|


  
-----------------------------------|---------------------------------|
-----------------------------------|---------------------------------|
-----------------------------------|---------------------------------|
-----------------------------------|---------------10g12--12--10--9--|
-----9--10--(9)--10g12--12--10--9--|-----9--10--9--------------------|
--0----------0---------------------|--0---------0--------------------|


                                                          w/dist.                               
   
---------------------------------|----------------------------------|--------------------------|
---------------------------------|----------------------------------|--------0--------------0--|
---------------------------------|-------------------11--11S-----0--|--------0--------------0--|
-----------------------0---------|------------------------0------0--|--------5--------------5--|
-----9--10--9--10g12--12--10--9--|-----9--10--9--10-------0------0--|--5--5--5--5--5--5--5--5--|
--0--0------0------0-------------|--0------0--0---0-----------------|--5--5--5--5--5--5--5--5--|


 
--------------------------|--------------------------|--------------------------|
--------0-----------0-----|--------0-----------0-----|--------0-----------0-----|
--------0-----------0-----|--------0-----------0-----|--------0-----------0-----|
--------5-----------5-----|--------5-----------5-----|--------5-----------5-----|
--5--5--5--5--5--5--5--5--|--5--5--5--5--5--5--5--5--|--5--5--5--5--5--5--5--5--|
--5--5--5--5--5--5--5--5--|--5--5--5--5--5--5--5--5--|--5--5--5--5--5--5--5--5--|


            
--------------------------|--------------------------|-------------------|-------------------|
--------0-----------0-----|--------------------------|-------------------|-------------------|
--------0-----------0-----|--------------------------|--2----------------|-------------------|
--------5-----------5-----|--5--5--5--5--5--5--5--5--|--2----------------|-------------------|
--5--5--5--5--5--5--5--5--|--5--5--5--5--5--5--5--5--|--0----------------|-------------------|
--5--5--5--5--5--5--5--5--|--5--5--5--5--5--5--5--5--|-------------------|-------------------|


                                           clean tone                                
 
-------------------|--------------------|-------------------------------------------|
-------------------|--------------------|-------------------------------------------|
--2----------------|--------------------|-------------------------------------------|
--2----------------|---------------0----|-------------------------------------------|
--0----------------|---------------0----|-------------9--10--(9)--10g12--12--10--9--|
-------------------|--------------------|--0------------------0---------------------|


  
---------------------------------|-----------------------------------|
---------------------------------|-----------------------------------|
---------------------------------|-----------------------------------|
---------------10g12--12--10--9--|-----------------------------------|
-----9--10--9--------------------|-----9--10--(9)--10g12--12--10--9--|
--0---------0--------------------|--0----------0-------0-------------|


    
------------------------------|-----------------------------------|
------------------------------|-----------------------------------|
---------------11--11--9------|-----------------------------------|
--------------------0--0--12--|-----------------------------------|
-----9--10--9-----------------|-----9--10--(9)--10g12--12--10--9--|
--0---------0-----------------|--0----------0---------------------|


  
---------------------------------|-----------------------------------|
---------------------------------|-----------------------------------|
---------------------------------|-----------------------------------|
---------------10g12--12--10--9--|-----------------------------------|
-----9--10--9--------------------|-----9--10--(9)--10g12--12--10--9--|
--0---------0--------------------|--0----------0---------------------|


  
---------------------------------|-----------------------------------|
---------------------------------|-----------------------------------|
---------------------------------|-----------------------------------|
---------------10g12--12--10--9--|-----------------------------------|
-----9--10--9--------------------|-----9--10--(9)--10g12--12--10--9--|
--0---------0--------------------|--0----------0---------------------|


   
---------------------------------|-----------------------------------|
---------------------------------|-----------------------------------|
---------------------------------|-----------------------------------|
---------------10g12--12--10--9--|-----------------------------------|
-----9--10--9--------------------|-----9--10--(9)--10g12--12--10--9--|
--0---------0--------------------|--0----------0---------------------|


  
---------------------------------|-----------------------------------|
---------------------------------|-----------------------------------|
----------------------12------x--|-----------------------------------|
----------------------12--10--9--|-----------------------------------|
--9--9--10--9--10g12-------------|-----9--10--(9)--10g12--12--10--9--|
--0--0------0--------------------|--0----------0---------------------|


   
---------------------------------|---------------------------------|
---------------------------------|---------------------------------|
---------------------------------|---------------------------------|
---------------10g12--12--10--9--|-----------------------0---------|
-----9--10--9--------------------|-----9--10--9--10g12--12--10--9--|
--0---------0--------------------|--0--0------0------0-------------|


                    w/dist.                                                              
 
----------------------------------|--------------------------|--------------------------|
--------------------0-------0-----|--------0--------------0--|--------0-----------0-----|
--------------------0-------0-----|--------0--------------0--|--------0-----------0-----|
--------------------0-------0--0--|--------5--------------5--|--------5-----------5-----|
--9--9--10--10--12-------------0--|--5--5--5--5--5--5--5--5--|--5--5--5--5--5--5--5--5--|
--0--0---0---0---0-------------0--|--5--5--5--5--5--5--5--5--|--5--5--5--5--5--5--5--5--|


 
--------------------------|--------------------------|--------------------------|
--------0-----------0-----|--------0-----------0-----|--------0-----------0-----|
--------0-----------0-----|--------0-----------0-----|--------0-----------0-----|
--------5-----------5-----|--------5-----------5-----|--------5-----------5-----|
--5--5--5--5--5--5--5--5--|--5--5--5--5--5--5--5--5--|--5--5--5--5--5--5--5--5--|
--5--5--5--5--5--5--5--5--|--5--5--5--5--5--5--5--5--|--5--5--5--5--5--5--5--5--|


        
--------------------------|-------------------|-------------------|-------------------|
--------------------------|-------------------|-------------------|-------------------|
--------------------------|--2----------------|-------------------|--2----------------|
--5--5--5--5--5--5--5--5--|--2----------------|-------------------|--2----------------|
--5--5--5--5--5--5--5--5--|--0----------------|-------------------|--0----------------|
--5--5--5--5--5--5--5--5--|-------------------|-------------------|-------------------|


               
----------------------|-------------------|------------------------|-------------------|
-----------------2----|-------------------|---------2--------------|-------------------|
----------------------|-------------------|---------------2-----2--|--2----------------|
---------2------------|--2----------------|---------------2--2-----|--2----------------|
----------------------|--0----------------|------------------------|--0----------------|
----------------------|-------------------|------------------------|-------------------|


  
-----------------------||----------------------------------|---------------------------------|
-----------------------||----------------------------------|---------------------------------|
-----------2--2--2-----||*---------------------------------|---------------------------------|
-----------2--2--2--0--||*-----------------------0---------|---------------10g12--12--10--9--|
--------------------0--||---9--9--10--9--10g12--12--10--9--|-----9--10--9--------------------|
--------------------0--||---0---------0------0-------------|--0--0------0--------------------|


                                                                 3x
---------------------------------|-------------------------------||
---------------------------------|-------------------------------||
---------------------------------|---------------11--11--9------*||
---------------------------------|--------------------0--0--12--*||
--9--9--10--9--10g12--12--10--9--|--9--9--10--9----------0-------||
--0------0--0------0---0---0--0--|--0--0------0------------------||


    
---------------------------------|---------------------------------|
---------------------------------|---------------------------------|
---------------------------------|---------------------------------|
---------------------------------|---------------10g12--12--10--9--|
--9--9--10--9--10g12--12--10--9--|-----9--10--9--------------0--0--|
--0------0--0------0-------0-----|--0--0------0--------------------|


  
----------------------------------|---------------------------------|
----------------------------------|---------------------------------|
----------------------------------|---------------------------------|
----------------------------------|-----------------------0---------|
--9--9--10---9--10g12--12--10--9--|--------10--9--10g12--12--10--9--|
--0---------10------0-------0-----|--0--0------0------0----------0--|


        
---------------------------------|---------------------------------|---------------------||
---------------------------------|---------------------------------|---------------------||
---------------------------------|---------------------------------|---------------------||
---------------------------------|---------------------------------|---------------------||
-----9--10--9--10g12--12--10--9--|-----9--10--9--10g12--12--10--9--|-------9-------------||
--0------0--0------0-------0-----|--0------0--0------0-------0-----|--0---------0--------||



    
    

0 Commentaires : réagissez !

1 2 3 4 5
0 notes
Aucun commentaire !

En Live

JHBFAYE vient tout juste de rejoindre la communauté Sweepyto. Bienvenue ! il y a 4 jours
DavidV85 vient tout juste de rejoindre la communauté Sweepyto. Bienvenue ! il y a 1 semaine
36seb a commenté le topic [Issoudun 2019] de 36seb il y a 1 semaine
Djidji vient tout juste de rejoindre la communauté Sweepyto. Bienvenue ! il y a 2 semaines
Analogeek a voté pour le message de patcast il y a 2 semaines
5emeavenue a commenté le wall de gege21 il y a 2 semaines
Patcast et analogeek ont commenté le topic [Covers guitare] de raphu0403 il y a 2 semaines
Analogeek a voté pour le message de patcast il y a 2 semaines