ConnexionConnexionInscription
E A D G B E
161 connectés Aller à Slappyto Basse
Thomann Thomann

Nirvana - About a girl [ Artiste ]

Publié par le
22/11/2010
10150 vues
Débutant 2
http://www.deezer.com/listen-2677378
    
        

Guitare accordée 1/2ton en dessous !  

INTRO ET COUPLETS         
                                                          
      Em            G                                                                
       
Eb||--0----0----0-----3--3--3--|--0----0--0-----3--3--3--||
Bb||--0----0----0-----0--0--0--|--0----0--0-----0--0--0--||
Gb||°-0----0----0-----0--0--0--|--0----0--0-----0--0--0-°||
Db||--2----2-------0-----0-----|--2----2-----0-----0-----||
Ab||°-2----2-------2-----------|--2----2-----2----------°||
Eb||---------------3-----------|-------------3-----------||
      B    B    H  B  H  B  H    etc.

  REFRAINS  
                                                                         
   C#       G#           F#                        Em                      A            C
      
||--4---4--------------|--2--2----2----2--2----||--0----0--0--0----0--0--|-----0--0--0-----0--0--0--|
||--6---6---4---4------|--2--2----2----2--2----||--0----0--0--0----0--0--|-----2--2--2-----1--1--1--|
||°-6---6---5---5------|--3--3----3----3--3---°||--0----0--0--0----0--0--|-----2--2--2-----0--0--0--|
||--6---6---6---6------|--4--4----4----4--4----||--2----2-----2----2-----|--2-----2-----2-----2-----|
||°-4---4---6---6------|--4--4----4----4--4---°||--2----2-----2----2-----|--0-----------3-----------|
||----------4---4------|--2--2----2----2--2----||------------------------|--------------------------|
    B   B   B   B         B  H    H    H  B        B    B  H  B    B  H     B  H  B  H  B  H  B  H


Médiator  B : Bas
          H : Haut
    
    

1 Commentaire

1 2 3 4 5
1 note
Notes pour About A Girl Guitare Tab - (Nirvana) | Sweepyto : 5/5 sur 1 note
#1
20/03/2011 14:29:26

E|-------------------|-----------------------|----------------|
B|-------------------|-----------9g12--12--12|----------------|
G|------------7----7g|---9-------9g12--12--12|----------------|
D|---------5--7----7g|---9----9--9g12--12--12|----------------|
A|----5--7-----------|-----------------------|----------------|
E|-0-----------------|-----------------------|----------------|
 le solo sa donne sa,fo le faire x4 

0
0

En Live

Selahbesac vient tout juste de rejoindre la communauté Sweepyto. Bienvenue ! il y a 1 jour
Baluchon vient tout juste de rejoindre la communauté Sweepyto. Bienvenue ! il y a 2 jours
James1964 a commenté la tablature de Poppy il y a 6 jours
James1964 vient tout juste de rejoindre la communauté Sweepyto. Bienvenue ! il y a 6 jours
Bouran32 vient tout juste de rejoindre la communauté Sweepyto. Bienvenue ! il y a 1 semaine
Hondaka vient tout juste de rejoindre la communauté Sweepyto. Bienvenue ! il y a 1 semaine
Sasam a commenté le wall de deni's il y a 1 semaine
Pelcat vient tout juste de rejoindre la communauté Sweepyto. Bienvenue ! il y a 1 semaine
Charlot vient tout juste de rejoindre la communauté Sweepyto. Bienvenue ! il y a 2 semaines
Dominique 31 a commenté le wall de bass_5s il y a 2 semaines