ConnexionConnexionInscription
E A D G B E
141 connectés Aller à Slappyto Basse
Thomann Thomann

Coldplay - Don't Panic [ Artiste ]

Publié par le
21/12/2010
4247 vues
Débutant 4
http://www.deezer.com/listen-3128092
    
        

          Fmaj7                 


E||-----|-----0-------------------|-----0-------------------|-----0-------------------|
B||--0--|--1--1--x--1----1--x--0--|--1--1--x--1----1--x--0--|--1--1--x--1----1--x--1--|
G||--0--|--2--2--x--2----2--x--0--|--2--2--x--2----2--x--0--|--2--2--x--2----2--x--2--|
D||--3--|--3--3--x--3----3--x--3--|--3--3--x--3----3--x--3--|--3--3--x--3----3--x--3--|
A||-----|-------------------------|-------------------------|-------------------------|
E||-----|-------------------------|-------------------------|-------------------------|


   Am                         C                        F


|-----0-------------------|-------------------------|--1--1--x--1----1--x--1--|
|--1--1--x--1----1--x--1--|--1--1--x--1----1--x--1--|--1--1--x--1----1--x--1--|
|--2--2--x--2----2--x--2--|--0--0--x--0----0--x--0--|--2--2--x--2----2--x--2--|
|--2--2--x--2----2--x--2--|--2--2--x--2----2--x--2--|--3--3--x--3----3--x--3--|
|--0--0--x--0----0--x--0--|--3--3--x--3----3--x--3--|--3--3--x--3----3--x--3--|
|-------------------------|-------------------------|--1--1--x--1----1--x--1--|


  
|--1--1--x--1----1--x--1--|-----0-------------------|-------------------------|
|--1--1--x--1----1--x--1--|--1--1--x--1----1--x--1--|--1--1--x--1----1--x--1--|
|--2--2--x--2----2--x--2--|--2--2--x--2----2--x--2--|--0--0--x--0----0--x--0--|
|--3--3--x--3----3--x--3--|--2--2--x--2----2--x--2--|--2--2--x--2----2--x--2--|
|--3--3--x--3----3--x--3--|--0--0--x--0----0--x--0--|--3--3--x--3----3--x--3--|
|--1--1--x--1----1--x--1--|-------------------------|-------------------------|

 
                                                      Dm  

  
|--1--1--x--1----1--x--1--|--1--1--x--1----1--x--1--|--5--5--x--5----5--x--5--|
|--1--1--x--1----1--x--1--|--1--1--x--1----1--x--1--|--6--6--x--6----6--x--6--|
|--2--2--x--2----2--x--2--|--2--2--x--2----2--x--2--|--7--7--x--7----7--x--7--|
|--3--3--x--3----3--x--3--|--3--3--x--3----3--x--3--|--7--7--x--7----7--x--7--|
|--3--3--x--3----3--x--3--|--3--3--x--3----3--x--3--|--5--5--x--5----5--x--5--|
|--1--1--x--1----1--x--1--|--1--1--x--1----1--x--1--|--------x----------x-----|


                             Am                        G

 
|--5--5--x--5----5--x--5--|--0--0-----0----0-----0--|-------------------------|
|--6--6--x--6----6--x--6--|--1--1--x--1----1--x--1--|--3--3--x--3----3--x--3--|
|--7--7--x--7----7--x--7--|--2--2--x--2----2--x--2--|--4--4--x--4----4--x--4--|
|--7--7--x--7----7--x--7--|--2--2--x--2----2--x--2--|--5--5--x--5----5--x--5--|
|--5--5--x--5----5--x--5--|--0--0--x--0----0--0--0--|--5--5--x--5----5--x--5--|
|--------x----------x-----|-------------------------|--3--3--x--3----3--x--3--|


   Dm                                                  Fmaj7

  
|--5--5--x--5----5--x--5--|--5--5--x--5----5--x--5--|--0--0-----0----0-----0--|
|--6--6--x--6----6--x--6--|--6--6--x--6----6--x--6--|--1--1--x--0----1--x--1--|
|--7--7--x--7----7--x--7--|--7--7--x--7----7--x--7--|--2--2--x--0----2--x--2--|
|--7--7--x--7----7--x--7--|--7--7--x--7----7--x--7--|--3--3--x--3----3--x--3--|
|--5--5--x--5----5--x--5--|--5--5--x--5----5--x--5--|--3--3--x--3----3--x--3--|
|--------x----------x-----|--------x----------x-----|--1--1-----1----1-----1--|


    
|-------------------------||
|--1--1--x--1----1--x--1--||
|--2--2--x--2----2--x--2--||
|--3--3--x--3----3--x--3--||
|--3--3--x--3----3--x--3--||
|--1--1--x--1----1--x--1--||
    
    

0 Commentaires : réagissez !

1 2 3 4 5
0 notes
Aucun commentaire !

En Live

Rene67 a voté pour le message de shark59 il y a 6 jours
Fume_sec vient tout juste de rejoindre la communauté Sweepyto. Bienvenue ! il y a 6 jours
Shark59 et 36seb ont commenté le topic [Epiphone Les Paul - Modèle ? Estimation ?] de shark59 il y a 1 semaine
36seb a commenté le topic [Origine - Monsters] de tristoise il y a 1 semaine
36seb a voté pour le message de tristoise il y a 1 semaine
Pascal'son a commenté le topic [Le bar est ouvert] de Poppy il y a 1 semaine
Alaingeorge vient tout juste de rejoindre la communauté Sweepyto. Bienvenue ! il y a 1 semaine
OLIVE56 : Nouvel interview il y a 2 semaines
maladaptive : Nouvel interview il y a 2 semaines