ConnexionConnexionInscription
E A D G B E
165 connectés Aller à Slappyto Basse
Thomann Thomann

Eddie Vedder - Tuolomne [ Artiste ]

Publié par le
21/12/2010
3009 vues
Débutant 3
http://www.youtube.com/watch?v=RRTDrriPNVU
    
        

                                                                    4x
E||---------------------------------|--1--------1-----0--------0------||
B||---1--------1-----3--------3-----|---------------------------------||
G||°-------0-------0------0-------0-|-------0-------0------0-------0-°||
D||°-----2-------2------2-------2---|-----2-------2------2-------2---°||
A||---3------3-------3------3-------|--3------3-------3------3--------||
E||---------------------------------|---------------------------------||


      
||----------------------------------||--------------------------------|
||---1--------1-----3--------3------||--3--------3-----1--------1-----|
||°-------2--------------2---------°||-------2-----2--------2-----2---|
||°-----0-------0------0-------0---°||-----3---------3----3---------3-|
||----------------------------------||--------------------------------|
||---2------2-----2-2------2-----2--||--1------1-------1------1-------|


  E   
|----------------------------||---------------------------------|
|--3--------3-----1----0--1--||---1--------1-----3--------3-----|
|-------2-----2--------------||°-------0-------0------0-------0-|
|-----3---------3------------||°-----2-------2------2-------2---|
|----------------------------||---3------3-------3------3-------|
|--1------1-------1----------||---------------------------------|


  
|--3--------3-----0--------0------||---------------------------------|
|---------------------------------||---1--------1-----3--------3-----|
|-------0-------0------0-------0-°||°-------0-------0------0-------0-|
|-----2-------2------2-------2---°||°-----2-------2------2-------2---|
|--3------3-------3------3--------||---3------3-------3------3-------|
|---------------------------------||---------------------------------|


   
|--1--------1-----0--------0------||----------------------------------||
|---------------------------------||---1--------1-----3--------3------||
|-------0-------0------0-------0-°||°-------2--------------2---------°||
|-----2-------2------2-------2---°||°-----0-------0------0-------0---°||
|--3------3-------3------3--------||----------------------------------||
|---------------------------------||---2------2-----2-2------2-----2--||


         
|--------------------------------|--------------------------||
|--3--------3-----1--------1-----|--3--------3-----1--------||
|-------2-----2--------2-----2---|-------2-----2------------||
|-----3---------3----3---------3-|-----3---------3----------||
|--------------------------------|--------------------------||
|--1------1-------1------1-------|--1------1-------1--------||

    
    

0 Commentaires : réagissez !

1 2 3 4 5
0 notes
Aucun commentaire !

En Live

Herick vient tout juste de rejoindre la communauté Sweepyto. Bienvenue ! il y a 6 jours
Riton91 vient tout juste de rejoindre la communauté Sweepyto. Bienvenue ! il y a 1 semaine
Romanol vient tout juste de rejoindre la communauté Sweepyto. Bienvenue ! il y a 2 semaines
WeeDusty vient tout juste de rejoindre la communauté Sweepyto. Bienvenue ! il y a 2 semaines
Analogeek a voté pour le message de Poppy il y a 2 semaines
Poppy a voté pour le message de rafikian il y a 2 semaines
Rafikian et Poppy ont commenté le topic [DIY Mini Footswitch pour Marshall JVM 205H] de Poppy il y a 2 semaines
Poppy a voté pour le message de rafikian il y a 2 semaines
Rafikian vient tout juste de rejoindre la communauté Sweepyto. Bienvenue ! il y a 2 semaines
Thibault_M a voté pour le message de 36seb il y a 2 semaines