ConnexionConnexionInscription
E A D G B E
128 connectés Aller à Slappyto Basse
Thomann Thomann

Eddie Vedder - Guaranteed (BO "Into the Wild") Intro [ Artiste ]

Publié par le
21/12/2010
22839 vues
Débutant 3
http://www.youtube.com/watch?v=Mwx3RvDWvDM
    
        

     
E||--3--------3-----3--------3-----|--2--------2-----2--------2-----|
B||-------3-------3------3-------0-|-------3-------3------3-------0-|
G||-----4-------4------4-------4---|-----4-------4------4-------4---|
D||--5------5-------5------5-------|--4------4-------4------4-------|
A||--------------------------------|--------------------------------|
E||--------------------------------|--------------------------------|


     
|--1--------1-----1--------1-----|--0--------0-----0--------0----|
|-------3-------3------3-------0-|-------1-------1------1--------|
|-----0-------0------0-------0---|-----0-------0------0-------0--|
|--3------3-------3------3-------|--2------2-------2------2------|
|--------------------------------|-------------------------------|
|--------------------------------|-------------------------------|


    
|--0--------0-----0--------0-----|--3--------3-----3--------3-----|
|-------1-------1------1-------1-|-------3-------3------3-------0-|
|-----0-------0------0-------0---|-----0-------0------------------|
|--------------------------------|--------------------0-------0---|
|--3------3-------3------3-------|--------------------------------|
|--------------------------------|--3------3-------3------3-------|


          
|--2--------2-----0--------0-----|--0h-2-------2-----2--------||
|-------3-------3------3-------3-|---------3-------3----------||
|-----2-------2------2-------2---|-------2-------2------------||
|--0------0-------0------0-------|--0--------0-------0--------||
|--------------------------------|----------------------------||
|--------------------------------|----------------------------||

    
    

0 Commentaires : réagissez !

1 2 3 4 5
0 notes
Aucun commentaire !

En Live

36seb a commenté le topic [Le bar est ouvert] de Poppy il y a 13 heures
36seb a voté pour le message de Thibault_M il y a 4 jours