ConnexionConnexionInscription
E A D G B E
176 connectés Aller à Slappyto Basse
Thomann Thomann

Coldplay - Viva la vida [ Artiste ]

Publié par le
21/12/2010
7323 vues
Débutant 3
http://www.deezer.com/listen-3160070
    
        

Riff principal

     C                 D                              G                 Em
  

E||--0----0----0----0--2--|-----2-----2--2----2----|--3----3----3----3--0--|
B||--1----1----1----1--3--|-----3-----3--3----3----|--0----0----0----0--0--|
G||--0----0----0----0--2--|-----2-----2--2----2----|--0----0----0----0--0--|
D||--2----2----2----2--0--|-----0-----0--0----0----|--0----0----0----0--2--|
A||--3----3----3----3-----|------------------------|--2----2----2----2--2--|
E||-----------------------|------------------------|--3----3----3----3--0--|


    
|-----0-----0--0----0----||
|-----0-----0--0----0----||
|-----0-----0--0----0----||
|-----2-----2--2----2----||
|-----2-----2--2----2----||
|-----0-----0--0----0----||
    
    

0 Commentaires : réagissez !

1 2 3 4 5
0 notes
Aucun commentaire !

En Live

Japanescort vient tout juste de rejoindre la communauté Sweepyto. Bienvenue ! il y a 2 semaines
Jobar_96 a commenté le test de Reglissette il y a 3 semaines
Zhekee vient tout juste de rejoindre la communauté Sweepyto. Bienvenue ! il y a 3 semaines
Lmawy71236 vient tout juste de rejoindre la communauté Sweepyto. Bienvenue ! il y a 3 semaines
Ducanidaho vient tout juste de rejoindre la communauté Sweepyto. Bienvenue ! il y a 3 semaines
Taneer98236 vient tout juste de rejoindre la communauté Sweepyto. Bienvenue ! il y a 4 semaines
TKSI1521 vient tout juste de rejoindre la communauté Sweepyto. Bienvenue ! il y a 1 mois
Lehcim vient tout juste de rejoindre la communauté Sweepyto. Bienvenue ! il y a 1 mois