ConnexionConnexionInscription
E A D G B E
207 connectés Aller à Slappyto Basse
Thomann Thomann

Joe Dassin - L'été indien [ Artiste ]

Publié par le
21/12/2010
14475 vues
Débutant 4
http://www.deezer.com/listen-535786
    
        

     Dm                                      A                                     
  
                
E||--5----------------|--5----------------|--5----------------|--5----------------|
B||--6----------------|--6----------------|--5----------------|--5----------------|
G||--7----------------|--7----------------|--6----------------|--6----------------|
D||--7----------------|--7----------------|--7----------------|--7----------------|
A||--5----------------|--5----------------|--7----------------|--7----------------|
E||-------------------|-------------------|--5----------------|--5----------------|


                                                                                                  
   D7                                      Gm                                      Eb                                      
               
|--5----------------|--5----------------|--3----------------|--3----------------|-------------------|
|--7----------------|--7----------------|--3----------------|--3----------------|--8----------------|
|--5----------------|--5----------------|--3----------------|--3----------------|--8----------------|
|--7----------------|--7----------------|--5----------------|--5----------------|--8----------------|
|--5----------------|--5----------------|--5----------------|--5----------------|--6----------------|
|-------------------|-------------------|--3----------------|--3----------------|-------------------|


                       Dm                                      Bm7/5-                                
   
              
|-------------------|--5----------------|--5----------------|-------------------|-------------------|
|--8----------------|--6----------------|--6----------------|--3----------------|--3----------------|
|--8----------------|--7----------------|--7----------------|--2----------------|--2----------------|
|--8----------------|--7----------------|--7----------------|--3----------------|--3----------------|
|--6----------------|--5----------------|--5----------------|--2----------------|--2----------------|
|-------------------|-------------------|-------------------|-------------------|-------------------|


   A                                                          
  
                                   
|--5----------------|--5----------------||
|--5----------------|--5----------------||
|--6----------------|--6----------------||
|--7----------------|--7----------------||
|--7----------------|--7----------------||
|--5----------------|--5----------------||

    
    

0 Commentaires : réagissez !

1 2 3 4 5
0 notes
Aucun commentaire !

En Live

Japanescort vient tout juste de rejoindre la communauté Sweepyto. Bienvenue ! il y a 2 semaines
Jobar_96 a commenté le test de Reglissette il y a 3 semaines
Zhekee vient tout juste de rejoindre la communauté Sweepyto. Bienvenue ! il y a 3 semaines
Lmawy71236 vient tout juste de rejoindre la communauté Sweepyto. Bienvenue ! il y a 3 semaines
Ducanidaho vient tout juste de rejoindre la communauté Sweepyto. Bienvenue ! il y a 3 semaines
Taneer98236 vient tout juste de rejoindre la communauté Sweepyto. Bienvenue ! il y a 4 semaines
TKSI1521 vient tout juste de rejoindre la communauté Sweepyto. Bienvenue ! il y a 1 mois
Lehcim vient tout juste de rejoindre la communauté Sweepyto. Bienvenue ! il y a 1 mois