ConnexionConnexionInscription
E A D G B E
144 connectés Aller à Slappyto Basse
Thomann Thomann

Mr. Big - To Be With You [solo] [ Artiste ]

Publié par le
21/08/2013
10027 vues
Débutant 3
http://www.youtube.com/watch?v=kTtQtO1bNZY
    
        

Voici le solo d'un petit morceau qui a embellit les années 90' !




Tempo: 80

E |---------------------------|------------------------------------------------|
B |----------5--5-------------|------------------------------------------------|
G |--1--2\4-----6-----4-------|--4-------------------4--------------4----------|
D |--2--4\6-----------6-------|--4----------------4--6-----------4--6----------|
A |---------------------------|------------------------------------------------|
E |---------------------------|------------------------------------------------|



|-------------------4-------|--2h-------4h-2h-0-----0-----------0----------------------------|
|----------5--5-----5-------|--4-----------------0--------------0----------------------------|
|--1--2\4-----6-------------|----------------------------------------------------------------|
|--2--4\6-------------------|----------------------------------------------------------------|
|---------------------------|----------------------------------------------------------------|
|---------------------------|--------------------------------------------------0-------------|



|---------------------------|----------------------------------------------------|
|----------5--5-------------|--4-----------5-----5--------------------12----10---|
|--1--2\4-----6-----4-------|--4-----------6-----6-----------------9-----9-------|
|--2--4\6-----------6-------|--------------------------------9--11---------------|
|---------------------------|-----------------------------\11--------------------|
|---------------------------|----------------------------------------------------|



--------------------------------------4-------------|
--9~----10----12----------------------5~------------|
--------------------9-------------------------------|
--------------------------11------------------------|
----------------------------------------------------|
----------------------------------------------------|


--2h-------4h-2h-0-----0-----------12-----------------------------------||
--4-----------------0--------------12-----------------------------------||
------------------------------------------------------11s---------13----||
------------------------------------------------------------------------||
------------------------------------------------------------------------||
------------------------------------------------------------------------||


Je vous conseille bien sûr de jouer ce morceau aux doigts et non avec votre fidèle médiator, mais cela
risque de vous compliquer un tout petit peu la tâche dans les mesures 6 et 7 !

Les principales difficultés, ici, se trouvent dans les mesures 4 et 8, où il y a un passage plutôt difficile à
réaliser en double et triple croches ..

N'oubliez pas la petite harmonique sur les deux "12" de la dernière mesure, ça fait la différence !

Et la petite cerise sur le gâteau : Vous pouvez chanter le refrain sur ce solo sans aucun problème :)


Voilà !
    
    

2 Commentaires

1 2 3 4 5
0 notes
#2
21/08/2013 18:19:51
?
pascal'son

y a plus qu'a maintenant    

 x')
0
+1
#1
21/08/2013 17:13:01

y a plus qu'a maintenant    

0
0

En Live

GregF71 vient tout juste de rejoindre la communauté Sweepyto. Bienvenue ! il y a 1 heure
36seb a voté pour le message de PRSnake il y a 17 heures