ConnexionConnexionInscription
E A D G B E
130 connectés Aller à Slappyto Basse
Thomann Thomann

Cocoon - Chupee [ Artiste ]

Publié par le
30/07/2013
12323 vues
Débutant 1
http://www.youtube.com/watch?v=gJ5XOreQz28
    
        

Accordage Standard (E A D G B E )


|-7-7--7-7-7--7-7--7-7-7--7-7--7-7-7--8-8--8-8-8-----|
|-8-8--8-8-8--8-8--8-8-8--7-7--7-7-7--7-7--7-7-7-----|
|-7-7--7-7-7--9-9--9-9-9--7-7--7-7-7--7-7--7-7-7-----|
|-------------------------9-9--9-9-9--7-7--7-7-7-----|
|----------------------------------------------------|
|----------------------------------------------------|


Le plus simple consiste à laisser l'index sur la 7ème case des 3 dernières cordes (les 3 plus aigus)

Et pour continuer dans la simplicité (ou la fainéantise ^^), on peut placer un capodastre sur la 7ème
case et jouer ceci (les "chiffres sur la tablature" sont donc décalés de 7...) :

|-0-0--0-0-0--0-0--0-0-0--0-0--0-0-0--1-1--1-1-1-----|
|-1-1--1-1-1--1-1--1-1-1--0-0--0-0-0--0-0--0-0-0-----|
|-0-0--0-0-0--2-2--2-2-2--0-0--0-0-0--0-0--0-0-0-----|
|-------------------------2-2--2-2-2--0-0--0-0-0-----|
|----------------------------------------------------|
|----------------------------------------------------|

Pour la rythmique, vous avez le lien de la chanson ;) !
    
    

0 Commentaires : réagissez !

1 2 3 4 5
0 notes
Aucun commentaire !

En Live

Biwulf a commenté le wall de bigyouth il y a 3 jours