ConnexionConnexionInscription
E A D G B E
145 connectés Aller à Slappyto Basse
Thomann Thomann

Michael Giacchino - Life And Death [Lost, les disparus - Theme song] [ Artiste ]

Publié par le
03/04/2013
9534 vues
Débutant 1
http://www.youtube.com/watch?v=twHXrNtG-7c
    
        

Voici un des thèmes de la mythique série "Lost, les disparus".

Initialement joué au piano, ou du moins avec des instruments autres que la guitare, c'est un morceau très lent,
puisque son tempo est de 66. Personnellement, je le joue sur une classique, mais c'est un choix avant tout
personnel et subjectif...

Les principales difficultés de ce morceau, sont, je pense, le placement de accords (barrés), et la régularité,
car il peut être difficile, pour certains, de garder ce même rythme lent sans accélérer. Donc munissez-vous
d'un métronome au besoin.

Je vous conseille de travailler tout d'abords le placement et l'enchaînement des accords à la main gauche,
ça vous facilitera le travail de la main droite... (Pour les droitiers bien sûr, pour les autres, inversez
les mots "droite" et "gauche", ou ne jouez pas ce morceau :D)




Les placements:

       Si bémol                                          Ré mineur

x                                                 x      
6      Index barré en case 6                      6      Index en case 5, Majeur
7      sur toute la largeur du                    7      en case 6 puis Annulaire
8      manche, Majeur en case 7                   7      et Auriculaire en case 7
x      et Annulaire en case 8.                    5      des cordes Ré et Sol
6                                                 x      respectivement.


     Mi bémol sus2                                       Fa

x      Index barré en case 6                      x      
6      sur toute la largeur du                    6      Index barré en case 3
8      manche puis Majeur et                      5      sur toute la largeur du
8      Annulaire en case 8 des                    3      manche, puis Annulaire 
6      corde de Ré et Sol                         3      en case 5 et Auriculaire
x      respectivement.                            x      en case 6.







E|--------------------------|--------------------------|--------------------------|--------------------------|
B|--6-----------------------|--6-----------------------|--6-----------------------|--6-----------------------|
G|--7-----------------------|--7-----------------------|--7-----------------------|--7-----------------------|
D|--8-----------------------|--7-----------------------|--8-----------------------|--7-----------------------|
A|--------------------------|--5-----------------------|--------------------------|--5-----------------------|
E|--6-----------------------|--------------------------|--6-----------------------|--------------------------|


|--------------------------|--------------------------|--------------------------|--------------------------|
|--6-----------------------|--6-----------------------|--6-----------------------|--6-----------6-----------|
|--8-----------------------|--7-----------------------|--8-----------------------|--7-----------5-----------|
|--8-----------------------|--7-----------------------|--8-----------------------|--7-----------3-----------|
|--6-----------------------|--5-----------------------|--6-----------------------|--5-----------3-----------|
|--------------------------|--------------------------|--------------------------|--------------------------|


|--------------------------|--------5-----------------|--------------------------|--------5-----------------|
|--6--------6--------6-----|--6--------6--------------|--6--------6--------6-----|--6--------6--------------|
|--------7--------7-----7--|--------------------------|--------7--------7-----7--|--------------------------|
|--------------------------|--------------------------|--------------------------|--------------------------|
|--------------------------|--5-----------------------|--------------------------|--5-----------------------|
|--6-----------------------|--------------------------|--6-----------------------|--------------------------|


|--------------------------|--------------------------|--------------------------|--------------------------|
|--6--------6--------6-----|--6-----------------6-----|--6--------6--------6-----|--------------------6--6--|
|--------8--------8-----8--|--------8--7-----8--------|--------8--------8-----8--|--7-----8--5--------------|
|--------------------------|--------------------------|--------------------------|-----------------3--------|
|--6-----------------------|--5-----------------------|--6-----------------------|--5-----------------------|
|--------------------------|--------------------------|--------------------------|--------------------------|


|--------------------------|--------5-----------------|--------------------------|--------5-----------------|
|--6--------6--------6-----|--6--------6--------------|--6--------6--------6-----|--6--------6--------------|
|--------7--------7-----7--|-----------7--------------|--------7--------7-----7--|-----------7--------------|
|-----------8--------------|-----7--------------------|-----------8--------------|-----7--------------------|
|-----8--------------------|--5-----------------------|-----8--------------------|--5-----------------------|
|--6-----------------------|--------------------------|--6-----------------------|--------------------------|


|--------------------------|--------------------------|--------------------------|--------------------------|
|--6--------6--------6-----|--6-----------------6-----|--6--------6--------6-----|--------------------6-----|
|--------8--------8-----8--|--------8--7-----8--------|--------8--------8-----8--|--7-----8--5--------5-----|
|-----8-----8--------------|-----7--------------------|-----8-----8--------------|-----7-----------3--------|
|--6-----------------------|--5-----------------------|--6-----------------------|--5-----------------------|
|--------------------------|--------------------------|--------------------------|--------------------------|


|--------------------------|--------5-----------------|--------------------------|--------5-----------------|
|--6--------6--------6-----|--6--------6--------------|--6--------6--------6-----|--6--------6--------------|
|--------7--------7-----7--|-----------7--------------|--------7--------7-----7--|-----------7--------------|
|-----------8--------------|-----7--------------------|-----------8--------------|-----7--------------------|
|-----8--------------------|--5-----------------------|-----8--------------------|--5-----------------------|
|--6-----------------------|--------------------------|--6-----------------------|--------------------------|


|--------------------------|--------------------------|--------------------------|--------------------------|
|--6--------6--------6-----|--6-----------------6-----|--6--------6--------6-----|--------------------6-----|
|--------8--------8-----8--|--------8--7-----8--------|--------8--------8-----8--|--7-----8--5--------5-----|
|-----8-----8--------------|-----7--------------------|-----8-----8--------------|-----7-----------3--------|
|--6-----------------------|--5-----------------------|--6-----------------------|--5-----------------------|
|--------------------------|--------------------------|--------------------------|--------------------------|


|--------------------------||
|--6-----------------------||
|--7-----------------------||
|--8-----------------------||
|--------------------------||
|--6-----------------------||
    
    

0 Commentaires : réagissez !

1 2 3 4 5
1 note
Notes pour Life And Death [Lost, Les Disparus - Theme Song] Guitare Tab - (Michael Giacchino) | Sweepyto : 5/5 sur 1 note
Aucun commentaire !

En Live

Patcast a commenté le topic [Original song (composition)] de UcCaBaRuCcA il y a 2 jours
Manantsoa et Thibault_M ont commenté le topic [Covers guitare] de raphu0403 il y a 6 jours
Manantsoa a voté pour le message de Thibault_M il y a 6 jours