ConnexionConnexionInscription
E A D G B E
145 connectés Aller à Slappyto Basse
Thomann Thomann

Alex Hepburn - Under [ Artiste ]

Publié par le
21/01/2013
22318 vues
Débutant 1
http://www.youtube.com/watch?v=Wq8BqYus40A
    
        

Capo I

couplet et refrain
|-----------------3---------------|
|-0-------1-------0-------3-------|
|-0-------0-------0-------0-------|
|-2-------2-------0-------4-------|
|-2-------3-------2-------5-------|
|-0---------------3---------------|

variation
|---------------------------------|
|-1---------------3-------1-------|
|-2-------0-------0-------0-------|
|-2-------2-------4-------2-------|
|-0-------2-------5-------3-------|
|---------0-----------------------|

Pour le rythme, c'est assez libre selon votre feeling

Je n'utilise ici que des accords de base, mais je conseil aux plus expérimentés
d'entre vous d'enrichir le Mi et le Do à l'aide du Sol (3ème case) sur la corde de Mi aiguë.
    
    

2 Commentaires

1 2 3 4 5
1 note
Notes pour Under Guitare Tab - (Alex Hepburn) | Sweepyto : 5/5 sur 1 note
#2
31/10/2014 19:09:39

J'ai cherché une rythmique qui aille bien ; c'est pas évident et j'ai opté pour B B BH et rien sur le 4eme temps( avez vous mieux ?) J'ai aussi essayé en Picking avec les mêmes accords et ça sonne plutôt bien . Sauf que quand je chante c'est la catAlex Hepburn  

0
0
#1
21/01/2013 12:23:55

Pas con l'enrichissement !

0
0

En Live

Biwulf a commenté le wall de bigyouth il y a 3 heures